Cifra Club

Rolling In The Deep

Adele

Cifra: Simplificada
exibições 170.906
Tom: D#
C5                         G5
   There's a fire starting in my heart
        Bb5                             G5             Bb5
Reaching a fever pitch, it's bringing me out the dark
C5                        G5
 Finally, I can see you crystal clear
 Bb5                              G5             Bb5
Go ahead and sell me out and I'll lay your ship bare
 C5                             G5
See how  I'll leave with every piece of you
 Bb5                       G5                 Bb5
Don't underestimate the things that I will do
C5                         G5
   There's a fire starting in my heart
        Bb5                             G5            Bb5
Reaching a fever pitch, it's bringing me out the dark

Ab              Bb                  Gm
  The scars of your love remind me of us
               Ab
They keep me thinking that we almost had it all
              Bb                         Gm
The scars of your love, they leave me breathless
                G
I can't help feeling

Refrão:
                     Cm   Bb
We could have had it all
                Ab7M
Rolling in the deep
     Bb              Cm      Bb
You had my heart inside of your hand
           Ab7M
And you played it
        Bb
To the beat...

E|-------------------------------------------------------------------
B|-------------------------------------------------------------------
G|-------------------------------------3-----------------------------  (4x)
D|----5-5-3-1------5-5-3-1-----------5---5-3-1----------1-0----------
A|------------3------------3-------------------3----3-3-----3-3------
E|-------------------------------------------------------------------


E|-------------------------------------------------------------------
B|-------------------------------------------------------------------
G|-------------------------------------------------------------------  (3x)
D|----1-3h5-5-3-1------1-3h5-5-3-1------1-5-5-3-1-1-1-1-3-1-5-1-1----
A|----------------3----------------3---------------------------------
E|-------------------------------------------------------------------


E|-------------------------------------------------------------------
B|-------------------------------------------------------------------
G|-------------------------------------------------------------------
D|----1-3h5-5-3-1------1-3h5-5-3-1------1-5-5-3-1-1-1-1-3-1-5-3-3----
A|----------------3----------------3---------------------------------
E|-------------------------------------------------------------------


Refrão:

E|-------------------------------------------------------------------
B|-------------------------------------------------------------------
G|------3---3---3h5-5-3------3---3---3h5-7-3------3---3---3h5-5-3----
D|----5---5---5------------5---5---5------------5---5---5------------
A|-------------------------------------------------------------------
E|-------------------------------------------------------------------


E|-------------------------------
B|-------------------------------
G|-------------------------------
D|----5-5-5h6-6----5-5-6-5-3-----
A|-------------------------------
E|-------------------------------

Acordes para:
    Composição: Adele Adkins / Paul EpworthColaboração e revisão:
    • billy dahora
    • Matheus

    0 comentários

      mostrar mais comentários

      Conseguiu tocar?

      15tocaram0ainda não

      Grave um vídeo tocando Rolling In The Deep e mande pra gente!

      00:00 / 00:00
      outros vídeos desta música
      repetirqualidadeautomática
      Outro vídeos desta música
        00:00 / 00:00
        automática
        OK