Cifra Club

A Thousand Years

Christina Perri

Cifra: Principal
exibições 2.210.880
Tom: A# (com acordes na forma de G) Capotraste na 3ª casa
[Introdução]

Parte 1
   G                          D/F#
E|-3--------3--------3--------2p0-----------|
B|-----3--------3--------3----------3-------|
G|-------0--------0--------0----------0-----|
D|---0--------0--------0----------0---------|
A|------------------------------------------|
E|-3--------0--------3--------2-------------| 

Parte 2
   Em
E|-0--------0-------0-------0---------------|
B|-----0--------0---------------0------0----|
G|-------0----------------0----------0---0--|
D|---2--------2---2---2/4-----4----5--------|
A|------------------------------------------|
E|-0--------0-------------------------------|

Parte 3
   C                 C4+      C5
E|----------0--------2--------3-------------|
B|-1------------1--------1--------1---------|
G|-----0----------0----0---0----0---0-------|
D|---2---2----2-----------------------------|
A|-3--------3--------3--------3-------------|
E|------------------------------------------|

Parte 4
   D4                D
E|-3--------3--------2-------2--------------|
B|-----3--------3--------3-----3------------|
G|---2---2----2---2----2---2-----2----------|
D|-0--------0--------0----------------------|
A|------------------------------------------|
E|------------------------------------------|


[Primeira Parte]

 C9
Heart beats fast
             G/B
Colors and promises
            Em7
How to be brave
           D/F#     G5     C9
How can I love when I'm afraid to fall
                   G/B
But watching you stand alone
           Em7
All of my doubt 
          D/F#  G5       Am7
Suddenly goes away somehow
      Am7(6)  Em  D9/F#
One step    clo__ser

[Dedilhado Primeira Parte - 2x]

Parte 1 - 2x:
   C9
E|------------------------------------------|
B|-------3------------3---------------------|
G|---0-------0----0-------0-----------------|
D|-----2------------2-----------------------|
A|-3-------3----3-------3-------------------|
E|------------------------------------------|

Parte 2 - 2x:
   G/B
E|------------------------------------------|
B|-------3------------3---------------------|
G|---0-------0----0-------0-----------------|
D|-----0------------0-----------------------|
A|-2-------2----2-------2-------------------|
E|------------------------------------------|

Parte 3
   Em7
E|------------------------------------------|
B|-------3------------3---------------------|
G|---0-------0----0-------0-----------------|
D|-----2---2--------2---2-------------------|
A|------------------------------------------|
E|-0------------0---------------------------|

Parte 4
   D/F#       G5
E|------------------------------------------|
B|-----3----------3-------------------------|
G|---------0----------0---------------------|
D|---0---0------0---0-----------------------|
A|------------------------------------------|
E|-2----------3-----------------------------|


[Refrão]

G                             D9/F#
I have died everyday waiting for you
 Em
Darling don't be afraid 
        D9/F#
I have loved you
        C  C4+      C5
For a thou____sand years
                      D4      D   C9
I'll love you for a thousand more


[Segunda Parte]

C9
   Time stands still
          G/B
Beauty in all she is
            Em7
I will be brave
            D9/F#   G5   C9
I will not let anything take away
                     G/B
What's standing in front of me
        Em7
Every breath
       D9/F#    G5       Am7
Every hour has come to this
      Am7(6)  Em  D9/F#
One step    clo__ser


[Refrão]

    G
And I have died everyday 
         D9/F#
Waiting for you
 Em
Darling don't be afraid 
        D9/F#
I have loved you
        C  C4+      C5
For a thou____sand years
                      D4      D
I'll love you for a thousand more

    G
And all along I believed 
         D9/F#
I would find you
 Em
Time has brought your heart to me
        D9/F#
I have loved you
        C  C4+      C5
For a thou____sand years
                   D4      D
I love you for a thousand more


[Ponte]

G
Oh..
   Em
Uh uh uh uh uh
C
Uh..
D4       D
Uh uh uh uh

Am7            Em  D9/F#
    One step clo__ser
Am7       Am7(6)  Em  D
    One step    clo__ser


[Refrão]

    G
And I have died everyday 
         D9/F#
Waiting for you
 Em
Darling don't be afraid 
        D9/F#
I have loved you
        C  C4+      C5
For a thou____sand years
                      D4      D
I'll love you for a thousand more

    G
And all along I believed 
         D9/F#
I would find you
 Em
Time has brought your heart to me
        D9/F#
I have loved you
        C  C4+      C5
For a thou____sand years
                   D4      D   C9
I love you for a thousand more

0 comentários

    mostrar mais comentários
    00:00 / 00:00
    outros vídeos desta música
    repetirqualidadeautomática
    Outro vídeos desta música
      00:00 / 00:00
      automática
      Capítulos
      • Tocando a música
      • Apresentação / Equipamentos
      • Acordes da Introdução
      • Tocando Introdução
      • Introdução (lento)
      • Introdução - Parte 1 de 4
      • Introdução - Parte 2 de 4
      • Introdução - Parte 3 de 4
      • Introdução - Parte 4 de 4
      • Acordes da Primeira Parte
      • Tocando Primeira Parte
      • Primeira Parte (lento)
      • Primeira Parte - Parte 1 de 4
      • Primeira Parte - Parte 2 de 4
      • Primeira Parte - Parte 3 de 4
      • Primeira Parte - Parte 4 de 4
      • Ensinando ritmo da música
      • Acordes Refrão
      • Tocando Refrão
      • Ensinando Refrão (Variação)
      • Dicas Segunda Parte
      • Tocando Segunda Parte
      • Dicas Segundo Refrão
      • Tocando Segundo Refrão
      • Dicas Ponte
      • Tocando Ponte
      • Encerramento
      OK