Cifra Club

Gatinha Manhosa

Adriana Calcanhotto

Cifra: Principal (violão e guitarra)
Selo Cifra Club: esta cifra foi revisada para atender aos critérios oficiais da nossa Equipe de Qualidade.
tom: Bb (forma dos acordes no tom de A) Capotraste na 1ª casa
[Intro] A

[Tab - Intro]

   A
E|-------------------------------|
B|-3--3--3--3--3--3--3--3----3---|
G|-3--3--3--3--3--3--3--3----3---|
D|-------------------------------|
A|-0--0--0--0--0--0--0--0----0---|
E|-------------------------------|

[Refrão]

Parte 1
   A          F#m7       Bm7(9)
E|-------------------------------|
B|---3---3------3---3------3---3-|
G|---3---3------3---3------3---3-|
D|---3---3------3---3------0---0-|
A|-0---0---0-------------3---3---|
E|------------3---3---3----------|
       E7
E|-------------------------------|
B|--3----0---0---0---------------|
G|--3----2---2---2---------------|
D|--0----0---0---0---------------|
A|3------------------------------|
E|-----0---0---0-----------------|

Parte 2
   A            F#m7         D
E|-----------------------------3-|
B|---3---3---3----3---3---3----4-|
G|---3---3---3----3---3---3----3-|
D|---3---3---3----3---3---3--0---|
A|-0---0---0---------------------|
E|--------------3---3---3--------|

      E7
E|--3---3------------------------|
B|--4---4----0---0---0-----------|
G|--3---3----2---2---2-----------|
D|0---0------0---0---0-----------|
A|-------------------------------|
E|---------0---0---0-------------|

Parte 3
   Em           A7           D
E|-----------------------------3-|
B|---0---0---0----3---3---3----4-|
G|---0---0---0----0---0---0----3-|
D|---3---3---3----3---3---3--0---|
A|--------------0---0---0--------|
E|-0---0---0---------------------|
           Dm
E|--3---3----2---2---2-----------|
B|--4---4----4---4---4-----------|
G|--3---3----3---3---3-----------|
D|0---0----0---0---0-------------|
A|-------------------------------|
E|-------------------------------|

Parte 4
   C#m7       F#m7         Bm7(9)
E|---5---5-----------------------|
B|---6---6------3---3---3----3---|
G|---5---5------3---3---3----3---|
D|--------------3---3---3----0---|
A|-5---5---5---------------3---3-|
E|------------3---3---3----------|

E|-------------------------------|
B|3---3--------------------------|
G|3---3--------------------------|
D|0---0--------------------------|
A|--3----------------------------|
E|-------0-----------------------|

Parte 5
   C#m7         F#m7         Bm7(9)
E|---5---5---5--------------------|
B|---6---6---6----3---3---3--3-3--|
G|---5---5---5----3---3---3--3-3--|
D|----------------3---3---3--0-0--|
A|-5---5---5-----------------3----|
E|--------------3---3---3---------|
          E7
E|--------------------------------|
B|--3---3---0---0---0-------------|
G|--3---3---2---2---2-------------|
D|--0---0---0---0---0-------------|
A|3---3---------------------------|
E|---------0---0---0--------------|

Parte 6
   C#m7    F#m7         Bm7(9)
E|-5-5---5------------------------|
B|-6-----6----3---3---3--3-3----3-|
G|-5-----5----3---3---3--3-3----3-|
D|-5----------3---3---3--0-0----0-|
A|-5---5-----------------3----3---|
E|-x--------3---3---3-------------|
     Bb
E|--------------------------------|
B|---4----------------------------|
G|---4----------------------------|
D|---4----------------------------|
A|3--2----------------------------|
E|--------------------------------|

Parte 1 e 2
         A             F#m7
     Meu bem já não precisa
             Bm7(9)        E7
     Falar comigo dengosa assim
      A              F#m7
     Brigas só pra depois
        D                   E7
     Ganhar mil carinhos de mim

Parte 3 e 4
   Em                A7
     Se eu aumento a voz
                  D
     Você faz beicinho
                Dm
     E chora baixinho
  C#m7              F#m7
     E diz que a emoção
  Bm7(9)          E7
     Dói seu coração

Parte 1 e 2
      A          F#m7
     Já não acredito
             Bm7(9)            E7
     Se você chora dizendo me amar
          A           F#m7
     Eu sei que na verdade
        D                 E7
     Carinhos você quer ganhar

Parte 3, 5 e 6
      Em              A7
     Um dia gatinha manhosa
                  D           Dm
     Eu prendo você no meu coração
  C#m7            F#m7
     Quero ver você
  Bm7(9)             E7
     Fazer manha então
     C#m7              F#m7
     Presa no meu coração
  Bm7(9)          Bb
     Quero ver você

Parte 1 e 2
  A              F#m7
     Já não acredito
             Bm7(9)            E7
     Se você chora dizendo me amar
          A           F#m7
     Eu sei que na verdade
        D                 E7
     Carinhos você quer ganhar

Parte 3, 5 e 6
      Em              A7
     Um dia gatinha manhosa
                  D           Dm
     Eu prendo você no meu coração
  C#m7            F#m7
     Quero ver você
  Bm7(9)             E7
     Fazer manha então
     C#m7              F#m7
     Presa no meu coração
  Bm7(9)          Bb
     Quero ver você
Outros vídeos desta música
263.184 exibições
  • Simplificar cifra
    • ½ Tom
    • A
    • Bb
    • B
    • C
    • Db
    • D
    • Eb
    • E
    • F
    • F#
    • G
    • Ab
  • Adicionar à lista

Afinação da cifra

Afinador online

    0 comentários

    Ver todos os comentários

    Entre para o Cifra Club PRO

    Tenha acesso a benefícios exclusivos no App e no Site

    • Chega de anúncios

    • Mais recursos no app do Afinador

    • Atendimento Prioritário

    • Aumente seu limite de lista

    • Ajude a produzir mais conteúdo

    Cifra Club Pro

    Aproveite o Cifra Club com benefícios exclusivos e sem anúncios
    Cifra Club Pro
    Aproveite o Cifra Club com benefícios exclusivos e sem anúncios
    OK