Cifra Club

Fighting For Your Heart Let It Go

After Edmund

Cifra: Principal (violão e guitarra)
Selo Cifra Club: esta cifra foi revisada para atender aos critérios oficiais da nossa Equipe de Qualidade.
tom: F#m
Intro
Part 1 C#m  Bm  C#m      D   C#m  D
E|------------------------------------------|
B|------------------------------------------|
G|---6-6-6-4-4-6-6-6-6-7-7-7-6-6-7-7-7------|
D|------------------------------------------|
A|---4-4-4-2-2-4-4-4-4-5-5-5-4-4-5-5-5------|
E|------------------------------------------|
Guitar 2
E|------------------------------------------|
B|-14-14-14-12-12-14-14-15-15-14-15-15------|
G|------------------------------------------|
Part 2 A               F#m        E
E|------------------------------------------|
B|------------------------------------------|
G|------------------------------------------|
D|---7-7-7-7-7-7-7--4-4-4-4-4-4-4--2--------|
A|---------------------------------2--------|
E|---5-5-5-5-5-5-5--2-2-2-2-2-2-2--0--------|
Guitar 2
E|------------------------------------------|
B|--10-10-10-10-10\19-19-19-19-19--17-------|
G|------------------------------------------| Intro Part 1, 3x Part 2, 1x

Verse
        F#m              Em F#m
E|------------------------------------------|
B|------------------------------------------|
G|---11-11-11-11-11-11-11---11--------------|
D|---11-11-11-11-11-11-11---11--------------|
A|----9--9--9--9--9--9--9\7/9---------------|
E|------------------------------------------|
F#m                Em F#m   F#m                Em F#m
Someone tore apart your heart Someone let you down
F#m           Em F#m  F#m              Em F#m
Down on the ground Someone ripped away your faith
F#m               Em F#m  F#m              Em F#m
Someone let you bleed Forgot what you need

Pre-Chorus
F#m           B      F#m              B
It’s not easy moving no It’s not easy moving on

Chorus
       C#m  Bm  C#m      D   C#m  D
E|------------------------------------------|
B|------------------------------------------|
G|---6-6-6-4-4-6-6-6-6-7-7-7-6-6-7-7-7------|
D|------------------------------------------|
A|---4-4-4-2-2-4-4-4-4-5-5-5-4-4-5-5-5------|
E|------------------------------------------|
Guitar 2
E|------------------------------------------|
B|-14-14-14-12-12-14-14-15-15-14-15-15------|
G|------------------------------------------|
         A              F#m        E
E|------------------------------------------------------|
B|------------------------------------------------------|
G|------------------------------------------------------|
D|---7-7-7-7-7-7-7--4-4-4-4-4-4-4--2--2--2--2--2--2--2--|
A|---------------------------------2--2--2--2--2--2--2--|
E|---5-5-5-5-5-5-5--2-2-2-2-2-2-2--0--0--0--0--0--0--0--|
Guitar 2
E|------------------------------------------------------|
B|---10-10-10-10-10\19-19-19-19-19-17-17-17-17-17-17-17-|
G|-------------------------------------------------------|
C#m  Bm  C#m      D      C#m  D
Oh, Let it go, Say goodbye,
   A              F#m        E
Call this an emergency, Love’s fighting for your heart to be free,
C#m         Bm  C#m      D      C#m  D
Don’t waste, Another tear, Drowning here, 
   A              F#m        E
In yesterday’s emergency, Love’s fighting for your heart to be free

Verse
F#m                   Em F#m     F#m                     Em F#m
Someone held you from your dream, Someone pushed you out
F#m             Em F#m  F#m              Em F#m
Out of the crowd, Somebody stole away your hope
F#m                    Em F#m     F#m                Em F#m
Someone ran off with your heart, You’re alone in the dark

Pre-Chorus
Chorus
Bridge
solo is this line and variants
E|------------------------------|------------------------------|
B|------------------------------|------------------------------|
G|---------------------------14-|------------------------------|
D|---16-14-16-14-14-16-14h16----|---16-14-16-14-14-16-14h16----|
A|------------------------------|---------------------------16-|
E|------------------------------|------------------------------|
                                  This is a variation when it goes lower
       C#m  Bm  C#m      D   C#m  D
E|------------------------------------------|
B|------------------------------------------|
G|---6-6-6-4-4-6-6-6-6-7-7-7-6-6-7-7-7------|
D|------------------------------------------|
A|---4-4-4-2-2-4-4-4-4-5-5-5-4-4-5-5-5------|
E|------------------------------------------|
     C#m  B C#m   E     F#m      A        G#m    F#m
E|-------------------------------------------------------|
B|-------------------------------------------------------|
G|--6-6-6-4-6-6-9-9-9-11-11-11-14-14-14-14-13-13-11-11-11|
D|-------------------------------------------------------|
A|--4-4-4-2-4-4-7-7-7-9--9--9--12-12-12-12-11-11-9--9--9-|
E|-------------------------------------------------------|
Outros vídeos desta música
      • ½ Tom
      • Am
      • Bbm
      • Bm
      • Cm
      • C#m
      • Dm
      • Ebm
      • Em
      • Fm
      • F#m
      • Gm
      • G#m
    • Adicionar à lista

    Afinação da cifra

    Afinador online

      0 comentários

      Ver todos os comentários

      Entre para o Cifra Club PRO

      Tenha acesso a benefícios exclusivos no App e no Site

      • Chega de anúncios

      • Badges exclusivas

      • Mais recursos no app do Afinador

      • Atendimento Prioritário

      • Aumente seu limite de lista

      • Ajude a produzir mais conteúdo

      Cifra Club Pro

      Aproveite o Cifra Club com benefícios exclusivos e sem anúncios
      Cifra Club Pro
      Aproveite o Cifra Club com benefícios exclusivos e sem anúncios
      OK