Cifra Club

Por Mil Noches

AIRBAG

Cifra: Principal (violão e guitarra)
Selo Cifra Club: esta cifra foi revisada para atender aos critérios oficiais da nossa Equipe de Qualidade.
tom: C#m
[Primeira Parte]

    C#m            B
Yo sé que algunas veces 
        A           E
Me equivoco demasiado 
    C#m               G#m
Yo sé que estás cansada 
      A           E     B/D#  
De mirarme de costado
 
   C#m        B
Estoy arrepentido 
      A          E
Y me gana la nostalgia 
C#m                  G#m
    Será que lo divino 
        A               E     B/D#
No mezcló muy bien las cartas
 
   C#m             B
Será cuestión de suerte 
       A           E
Que sigamos separados 
C#m                G#m
    Quisiera encerrarte 
         A              E    B/D#
Por mil noches, por mil años

[Refrão]
 
 F#m        B           G#m
Sigo sin saber nada de vos 
           C#m
En este incendio
 F#m            B            G#m
Cada vez que estás cerca de mi 
          C#m
Es un infierno 
 A                B  Am     E      
Desde el día en que te conocí

[Solo] C#m  B  A  E 
       C#m  G#m  A  E 

[Tab - Solo]

Parte 1 de 5

E|-----------------------------------|
B|-----------------------------------|
G|-11b-11b-12r11-------9~--8-9~------|
D|----------------9h11---------------|
A|-----------------------------------|
E|-----------------------------------|

Parte 2 de 5

E|-----------------------------------|
B|-----------------------------------|
G|-11b13r11--9~----------------------|
D|--------------9h11-x-9h11/---------|
A|-----------------------------------|
E|-----------------------------------|

Parte 3 de 5

E|-----------------12--12/14-12------|
B|-------9-11-9-11b------------------|
G|-9h11------------------------------|
D|-----------------------------------|
A|-----------------------------------|
E|-----------------------------------|

Parte 4 de 5

E|-----------------------------------|
B|-12p10-9-10-10h12-10---------------|
G|-----------------------------------|
D|-----------------------------------|
A|-----------------------------------|
E|-----------------------------------|

Parte 5 de 5

E|-----------------------------------|
B|-----------------------------------|
G|-11b12-12-12r11--9p8-9-------------|
D|-----------------------------------|
A|-----------------------------------|
E|-----------------------------------|

[Segunda Parte]

     C#m        B
Quisiera encontrarte
       A           E
Algún día en mi camino
C#m                  G#m
   No ves que sigo atado 
         A              E    B/D#
A un recuerdo que no olvido
 
   C#m          B   
Y tengo tantas cosas 
       A        E
Que decirte al oído
C#m                G#m
    Mentiras o verdades 
          A            E     B/D#
Que no importa, da lo mismo

[Refrão 2]
 
 F#m        B           G#m
Sigo sin saber nada de vos 
           C#m
En este incendio
 F#m            B            G#m
Cada vez que estás cerca de mi 
          C#m
Es un infierno 

 F#m        B           G#m
Sigo sin saber nada de vos 
           C#m
En este incendio
 F#m            B            G#m
Cada vez que estás cerca de mi 
          C#m
Es un infierno 
 
 A                B
Hace un tiempo estoy así 
 A           B
No puedo dormir
 A                B     Am  E
Desde el día en que te conocí

[Terceira Parte]

       C#m            G#m
Y las horas en la noche
    A              E
Vuelan en la madrugada
        A             C#m
Donde brillan las estrellas
       A           F#m  B
Donde ya no queda nada

      C#m          G#m
Y la noche me sorprende
        A              E 
Y me arranca las entrañas
      A           C#m
Y me mata poco a poco
       A           F#m  B
Me va dejando sin nada

      C#m       G#m
Y tu risa se desborda
       A             E
Donde mueren las promesas
       A             C#m
No me pidas que me enoje
       A               F#m  B
Si enojarse es tu destreza

        C#m           G#m
Y no olvides que nos dimos
      A             E
Todo lo que nos quedaba
       A           C#m
Sin embargo, casi nunca
       A           F#m  B
Nunca no nos alcanzaba

      C#m          G#m
Esa noche que te fuiste
         A           E
Y que empezamos a odiarnos
      A           C#m
Cada día que se vuela
      A                F#m  B
Cada vez yo mas te extraño

[Final] C#m  G#m  A  E
        A  C#m  A  
        F#m  B  C#m
Outros vídeos desta música
    322.710 exibições
    • Simplificar cifra
      • ½ Tom
      • Am
      • Bbm
      • Bm
      • Cm
      • C#m
      • Dm
      • Ebm
      • Em
      • Fm
      • F#m
      • Gm
      • G#m
    • Adicionar à lista

    Afinação da cifra

    Afinador online

      0 comentários

      Ver todos os comentários

      Entre para o Cifra Club PRO

      Tenha acesso a benefícios exclusivos no App e no Site

      • Chega de anúncios

      • Badges exclusivas

      • Mais recursos no app do Afinador

      • Atendimento Prioritário

      • Aumente seu limite de lista

      • Ajude a produzir mais conteúdo

      Cifra Club Pro

      Aproveite o Cifra Club com benefícios exclusivos e sem anúncios
      Cifra Club Pro
      Aproveite o Cifra Club com benefícios exclusivos e sem anúncios
      OK