Cifra Club

Aprenda

Born Under A Bad Sign

Albert King

Tab de baixo: Versão 2
Já pensou em usar uma coleção de roupas do Cifra Club? Responda as perguntas abaixo e nos ajude nessa missão! →
G|------------------|----------------|
D|-------------2----|----------------|
A|-------2--4-----4-|--------2-----4-| (3X)
E|-2--4-------------|-2---4-----0----|

G|------------|------------|------------|------------------|
D|------------|------------|------------|-------------2----|
A|------------|------------|-----2----4-|-------2--4-----4-|
E|-1--2--3--4-|--444--3--2-|-22----0----|-2--4-------------|

G|----------------|
D|----------------|
A|-------2-2--2^4-| (4X)
E|-2--4-----------|

G|-------------------------|
D|-------------------------|
A|-------2-2---------------|
E|-2--4-------4-44-5-4-3-2-|

G|------------|------------|---------------|------------------|
D|------------|------------|---------------|-------------2----|
A|------------|------------|-------2-----4-|-------2--4-----4-|
E|-22-1-2-3-4-|-44-5-4-3-2-|-2--4-----0----|-2--4-------------|
Composição de Booker T. Jones / William Bell
Colaboração e revisão:
  • Diego Bass
1 exibições

0 comentários

Ver todos os comentários

Conseguiu tocar?

0 Tocaram 0 Ainda não

Grave um vídeo tocando Born Under A Bad Sign e nos envie!

00:00 / 00:00
Outros vídeos desta música
Repetir Qualidade Automático
Outros vídeos desta música
00:00 / 00:00
Automático

Cifra Club Pro

Aproveite o Cifra Club com benefícios exclusivos e sem anúncios
Cifra Club Pro
Aproveite o Cifra Club com benefícios exclusivos e sem anúncios
OK