Cifra Club

Aprenda

A Musa das Minhas Canções

Alexandre Pires

Cifra: Principal (violão e guitarra)
tom: C
(intro)
     Dm                                                 Am
E |-1--0-1-3-3p1p0-1----------------------------------0--------|
B |-3----------------0--------1-0---0-1-3-1-0-3-1p0h1-1--------|
G |-2-----------------------0-------------------------2--------|
D |-0---------------------0---------------------------2--------|
A |---------------------------------------------------0--------|
E |---------------------3------------------------------------|

                           G
E |-7-8-10-8-7-----------33-----------------|
B |------------10-8/-----33-----------------|
G |------------------0---00--4/5-4h5p4------|
D |----------------------00------------5-7~-|
A |----------------------22-----------------|
E |----------------------33-----------------|

F            E            Am
Num palco de um pequeno bar
               C
Eu nunca imaginei
                 F      G
Que fosse encontrar você
E |-------------------|
B |-----3-------------|
G |--4-5--5--4h5p2-4~-|

Bm       E               A
Assim , fora do sonho , que eu sonhei
       F#m                        Bm                       E            A
Te encontrei E|----------|,e só eu sei E|---------| , o tempo que eu te esperei
             B|--3h5--3~-|             B|---------|
             G|------6---|             G|-----2-1~|
                                       D|-0-4-----|
(Refrão)
A        Dm            G           Am      G
A musa das minhas canções , me ouvindo tocar
           Dm            G           A4 A
  E cada verso que eu cantar , é pra ela.
E |----------|
B |--3h5-1-2~|
G |----------|

         Dm            G         Am       G
A musa das minhas canções , veio me iluminar
        F         Fm            E
Meu amor , meu amor , estou aqui ... estou aqui.
E |---------------|
B |---------------|
G |--4h5p4--------|
D |--------7-5----|
A |------------7~-|
E |---------------|

F                E             Am
Venha ouvir os versos que escrevi
                 C
Eu sempre acreditei
                  F       G
Que fosse encontrar você.
E |--9p7p5------|
B |--------8-7~-|
G |-------------|

(estribilho)
Bm       E               A
Assim , como no sonho que eu sonhei
   F#m                           Bm              E            A4         A
Te encontrei E|----------|, e agora eu sei , você é mais do que esperei
             B|--5p7-----|
             G|------6-7~|

A        Dm            G           Am      G
A musa das minhas canções , me ouvindo tocar
          Dm            G           A4 A
 E cada verso que eu cantar , é pra ela.
E |-----3-5--2~-|
B |--3-5---5----|
G |-------------|

         Dm            G         Am       G
A musa das minhas canções , veio me iluminar
       F         Fm            E
Meu amor , meu amor , estou aqui ... estou aqui.
E |---8h10p7h8-------------------------------------|
B |-------------10p9h10-10-6/8~--8-7-6-5~----------|
G |---------------------------------------5h7p5-4~-|

(solo)
Cm F Bb Gm

Senta aqui perto de mim , fecha teus olhos
E sonha no sonho meu , você vai descobrir
Que sempre estive aqui

E |------8/10-10-11-11~-6-8-8/10-10-8h10p8p7--8-10-11-10-8-6-5--------------...|
B |-----8-------------------------------------------------------6----3h4p3-3...|
G |----8-------------------------------------------------------5--5-------5-...|
D |--10---------------------------------------------------------------------...|
A |-------------------------------------------------------------------------...|
E |-------------------------------------------------------------------------...|
                       Cm              F                  Bb
                       Eu só queria você em meus braços amor
E |---------------7-10--15-15-15/13-13/11-11-10-8----8---8/10~-|
B |-----------8-8---------------------------------11----8------|
G |-5h7p5-4-7------------------------------------------8-------|
D |------------------------------------------------------------|
A |------------------------------------------------------------|
E |------------------------------------------------------------|

(estribilho)
Bm       E               A
Assim , como no sonho que eu sonhei
F#m           Bm              E                   A4     A
Te encontrei, e agora eu sei , você é mais do que esperei

(refrão)
 A        Dm            G           Am      G
A musa das minhas canções , me ouvindo tocar
         Dm            G           A4 A
E cada verso que eu cantar , é pra ela.
  Dm            G         Am       G
A musa das minhas canções , veio me iluminar(x2)
F               Fm         E
Meu amor, meu amor estou aqui.

E |--7-10-10-10-10p8p7-8-8|---7-8-10-7-7-7h8----------------------|
B |-----------------------|--8----------------10-10--8h10-8-------|
G |-----------------------|---------------------------------10-9~-|
D |-----------------------|---------------------------------------|
A |-----------------------|---------------------------------------|
E |-----------------------|---------------------------------------|
Composição de Diane Warren / Dudu Falcão
Colaboração e revisão:
  • Iago Grangeiro
140.292 exibições
    • ½ Tom
    • A
    • Bb
    • B
    • C
    • Db
    • D
    • Eb
    • E
    • F
    • F#
    • G
    • Ab
  • Adicionar à lista

    0 comentários

    Ver todos os comentários

    Conseguiu tocar?

    8 Tocaram 0 Ainda não

    Grave um vídeo tocando A Musa das Minhas Canções e nos envie!

    00:00 / 00:00
    Outros vídeos desta música
    Repetir Qualidade Automático
    Outros vídeos desta música
    00:00 / 00:00
    Automático

    Cifra Club Pro

    Aproveite o Cifra Club com benefícios exclusivos e sem anúncios
    Cifra Club Pro
    Aproveite o Cifra Club com benefícios exclusivos e sem anúncios
    OK