Cifra Club

Welcome To My Nightmare

Alice Cooper

Cifra: Principal (violão e guitarra)
tom: C
|---------------------------|
|---------------------------|
|---------------------------|
|---------------------------|
|---------------------------|
|----------------------7s2--|

|-----------|-------7--------|
|-----------|-------7--------|
|-----------|-------7--------|
|-----------|-------9--------|
|------5h7--|-------7--------|
|-0-5h7-----|-0--------------|

|-----------|----------------|
|-----------|----------------|
|-----------|----------------|
|-----------|----------------|
|------5h7--|----------------|
|-0-5h7-----|-0--0-0---0-0---|

|-----------|-------7--------|
|-----------|-------7--------|
|-----------|-------7--------|
|-----------|-------9--------|
|------5h7--|-------7--------|
|-0-5h7-----|-0--------------|

|-----------|----------------|
|-----------|----------------|
|-----------|----------------|
|-----------|----------------|
|------5h7--|----------------|
|-0-5h7-----|-0--------------|

|-7---------|----------------------|
|-7---------|----------8-7---------|
|-7---------|-------9--------------|
|-9---------|-----9----------------|
|-7---------|----------------------|
|-----------|----------------------|

|-------------------------|
|--------7-5--------------|
|----7--------------------|
|--7----------------------|
|-------------------------|
|-------------------------|

|-------------------|---------|-------------|--7---|
|-------------------|---------|-------------|--7---|
|-------------------|---------|-------------|--7---|
|-------------------|---------|-------------|--9---|
|-------------------|---------|-------------|--7---|
|-------------------|---------|--0----------|------|

   |--------|--------|---------|
   |--------|--------|---------|
   |--------|--------|---------|
   |--------|--5-----|---------|
   |---7-7-5|----7-5-|-7-------|
   |-0------|--------|----5-6-7|

|------------|
|------------|
|--------7--9|
|--------7--9|
|------5-5--7|
|------------|

welcome to my  breakdown
i hope i didnt scare you
thats jsut the way were are ween we come down
we sweat laugh and scream here
coz life is jsut a dream here
you now inside you feel right at home
welcome to my breakbown
yeah welcome to my nightmare woa woa

|-7--7--7-7--7-|
|-8--10-8-8--10|
|-7--7--7-7--7-|
|-9--9--9-9--9-|
|-7--7--7-7--7-|
|--------------|

(guitar 2)
|---------------|---------7-7-----|
|---------------|---------8-8-----|
|-----9-9-x-9-9-|-----9-9-7-7-9-9-|
|-----9-9-x-9-9-|-----9-9-9-9-9-9-|
|-5/7-7-7-x-7-7-|-5/7-7-7-7-7-7-7-|
|---------------|-----------------|

(division)
|15-15-15--14-14-14--12-12-12--10-10-10-|
|15-15-15--14-14-14--12-12-12--10-10-10-|
|---------------------------------------|
|---------------------------------------|
|---------------------------------------|
|---------------------------------------|

(solo)
|-----------------------------|
|-\7--5-5---------------------|
|----------6-6---\6-4----4p5--|
|----------------------7------|
|-----------------------------|
|-----------------------------|

|---------------------------------|---------------------------------3-3--5-5--7-7--8--8|
|---------------------------------|------------------------3-3--5-5--------------------|
|-5-5--4-4--2-2-------------------|---------------2-4--5-5-----------------------------|
|-----------------2\5--2----------|-2-2--4-4--5-5--------------------------------------|
|-------------------------3-3\5---|----------------------------------------------------|
|---------------------------------|----------------------------------------------------|

|---13b-12---12-13-15p13p12------------------|
|---------------------------15p13p12---------|
|------------------------------------12p14-12|
|--------------------------------------------|
|--------------------------------------------|
|--------------------------------------------|

00:00 / 00:00
Outros vídeos desta música
Repetir
Outros vídeos desta música
Composição de Alice Cooper / Dick Wagner
Colaboração e revisão:
  • Felipe Penna
  • Diego Martins
1.511 exibições
    • ½ Tom
    • A
    • Bb
    • B
    • C
    • Db
    • D
    • Eb
    • E
    • F
    • F#
    • G
    • Ab
  • Adicionar à lista

    0 comentários

    Ver todos os comentários

    Conseguiu tocar?

    1 Tocaram 0 Ainda não

    Grave um vídeo tocando Welcome To My Nightmare e nos envie!

    Entre para oCifra Club PRO

    Tenha acesso a benefícios exclusivos no App e no Site

    • Chega de anúncios

    • Prioridade de compra em lançamentos

    • Mais recursos no app do Afinador

    • Atendimento Prioritário

    • Descontos nos produtos Cifra Club

    • Ajude a produzir mais conteúdo

    00:00 / 00:00

    Cifra Club Pro

    Aproveite o Cifra Club com benefícios exclusivos e sem anúncios
    Cifra Club Pro
    Aproveite o Cifra Club com benefícios exclusivos e sem anúncios
    OK