Cifra Club

Mi propio enemigo (soy lo que soy)

Allison

Cifra: Principal (violão e guitarra)
tom: C
intro
E|-8-8-8-8-8-8-8-8-8-8-8-8-8-8-8-8-8-8|
B|--8-8-8-8-8-8-8-8-8-8-8-8-8-8-8-8-8|

al inciar el verso empieza la tablatura

puedes sacarme de aqui..
D|----5--7--5-|
A|----3--7--5-|
E|----3--5--3-|

precoro
te encierras dentro...
D|---7--3--5--5|
A|---7--3--3--5|
E|---5--1--3--3|

E|------------------------| x3
B|--8---8---8---8----5h6h5|
G|---5-5-5-5-5-5-5-5------|

E|--10---10---10---10---10h12-10h8|
B|----8-8--8-8--8-8--8-8----------|
G|--------------------------------|

estribillo

porque hoy soy lo que soy...
D|--5--5--3--5|
A|--3--5--3--5|
E|--3--3--1--3|

efecto
E|--20--|

no necesito de ti...

dos guitarras, primera y ritmica
G|--12-12-12-12-12-12|
D|--12-12-12-12-12-12|
A|--10-10-10-10-10-10|
E|-------------------|

D|-5--7--5--|
A|-3--7--5--|
E|-3--5--3--|

precoro
has algo por salir...
D|---7--3--5--5|
A|---7--3--3--5|
E|---5--1--3--3|

E|------------------------| x3
B|--8---8---8---8----5h6h5|
G|---5-5-5-5-5-5-5-5------|

E|--10---10---10---10---10h12-10h8|
B|----8-8--8-8--8-8--8-8----------|
G|--------------------------------|

estribillo

porque hoy soy lo que soy...
D|--5--5--3--5|
A|--3--5--3--5|
E|--3--3--1--3|

puente
ritmico
D|--7--5--5--3--7--5--3--5--|
A|--5--3--5--3--7--5--3--5--|
E|--5--3--3--1--5--3--1--3--|
solo...
E|------------22--------------8-8-----3-----3--------------3-----3--|
B|------------------------8-------0h1---0h1--0h1--0h1--0h1---0h1----|
G|--------5-5----7-9-5--5---5---------------------------------------|
D|--7-9-5-----------------------------------------------------------|
A|------------------------------------------------------------------|
E|------------------------------------------------------------------|

luego
E|--8---8---8--8-7--7---10---10---8|
B|---8---8--8-----8--8----8----8--|


estribillo
hoy soy lo que soy...

final
E|-8-8-8-8-8-8-8-8-8-8-8-8-8-8-8-8-8-8|
B|--8-8-8-8-8-8-8-8-8-8-8-8-8-8-8-8-8|
Composição de Allison
    • ½ Tom
    • A
    • Bb
    • B
    • C
    • Db
    • D
    • Eb
    • E
    • F
    • F#
    • G
    • Ab
  • Adicionar à lista

    0 comentários

    Ver todos os comentários

    Conseguiu tocar?

    0 Tocaram 0 Ainda não

    Grave um vídeo tocando Mi propio enemigo (soy lo que soy) e nos envie!

    00:00 / 00:00
    Outros vídeos desta música
    Repetir Qualidade Automático
    Outros vídeos desta música
    00:00 / 00:00
    Automático

    Cifra Club Pro

    Aproveite o Cifra Club com benefícios exclusivos e sem anúncios
    Cifra Club Pro
    Aproveite o Cifra Club com benefícios exclusivos e sem anúncios
    OK