Cifra Club

Alguém Me Disse

Ana Carolina

Cifra: Principal (violão e guitarra)
Selo Cifra Club: esta cifra foi revisada para atender aos critérios oficiais da nossa Equipe de Qualidade.
tom: C
h= hammer on
p= pull off
~= vibrato

(intro - cello adaptado para violão ou guitarra)

E |------------------------------------------------------------
B |------------------------------------------------------------
G |----3--5--3p1h3p1p0h1p0-0-0~~-------------------------------
D |-----------------------3--------------3-1-0-----------------
A |-----------------------------------------3-2-1--------------
E |--3-----------------------------------------4-3-1----3-3----

E |--------------------------------------------------------------------
B |--------------------------------------------------------------------
G |--5--7h8p7h8---5-3------------5--7h8p7h8---5-3----------------------
D |-5-----------------5p4p3-5---5-----------------5p4p3-5~-------------
A |--------------------------------------------------------6--5--3-----
E |3---------------------------3---------------------------------------

E |-------------------------
B |-------------------------
G |-------------------------
D |--6-5--------------------
A |--6-5--------------------
E |--4-3--------------------

(intro) (0:23) C5 F5

          C5
Alguém me disse
       F5         C5  F5
Que tu andas novamente
         C5           Bb5
De novo amor, nova paixão
         Eb5  (riff)
Todo contente

(riff)
E |---6-6-6-6-6------------------------
B |----6-6-6-6-6-----------------------
G |-----8-8-8-8-8----------------------
D |------------------------------------

       F5          Bb5
Conheço bem tuas promessas
          Eb5        Ab5
Outras ouvi Iguais a essas
          A5
Esse teu jeito de enganar
        G5   Ab5 G5
Conheço bem

            C5
Pouco me importa
       F5            C5   F5
Que tu beijes tantas vezes
         C5          Bb5
E que tu mudes de paixão
          Eb5 (riff)
Todos os meses

           Ab5
Se vais beijar
            G5
Como eu bem sei
         C5
Fazer sonhar
             Bb5
Como eu sonhei
      A5               G5
Mas sem ter nunca amor igual
             Ab5 F5
Ao que eu te dei
              C5 F5
Ao que eu te dei

(bandoneon - adapitado para violão ou guitarra - 3x)
E |---------------------------------------------------------------------------
B |-13-15h16p15h16-13-11-------------13-15h16p15h16-13-11---------------------
G |12--------------------12p11p10---12--------------------12p11p10-12---------
D |------------------------------13-----------------------------------13-12-10
A |---------------------------------------------------------------------------
E |---------------------------------------------------------------------------
00:00 / 00:00
Outros vídeos desta música
Repetir
Outros vídeos desta música
174.252 exibições
    • ½ Tom
    • A
    • Bb
    • B
    • C
    • Db
    • D
    • Eb
    • E
    • F
    • F#
    • G
    • Ab
  • Adicionar à lista

Afinação da cifra

Afinador online

    0 comentários

    Ver todos os comentários

    Entre para o Cifra Club PRO

    Tenha acesso a benefícios exclusivos no App e no Site

    • Chega de anúncios

    • Mais recursos no app do Afinador

    • Atendimento Prioritário

    • Aumente seu limite de lista

    • Ajude a produzir mais conteúdo

    00:00 / 00:00

    Cifra Club Pro

    Aproveite o Cifra Club com benefícios exclusivos e sem anúncios
    Cifra Club Pro
    Aproveite o Cifra Club com benefícios exclusivos e sem anúncios
    OK