Cifra Club

Trem-Bala

Ana Vilela

Cifra: Alternativa (violão e guitarra)
exibições 115.300
Tom: A
Intro: A  D  A  E

Parte 1 de 3
         A
E|-------0-x-0--------0-x-0-----------------|
B|-------2-x-2--------2-x-2-----------------|
G|-----2---x-2------2---x-2-----------------|
D|---2------------2-------------------------|
A|-0------------0---------------------------|
E|------------------------------------------|

Parte 2 de 3
         D
E|-----2-x-2------2-x-2---------------------|
B|-----3-x-3------3-x-3---------------------|
G|---2---x-2----2---x-2---------------------|
D|-0----------0-----------------------------|
A|------------------------------------------|
E|------------------------------------------|

Parte 1 de 3
         A
E|-------0-x-0--------0-x-0-----------------|
B|-------2-x-2--------2-x-2-----------------|
G|-----2---x-2------2---x-2-----------------|
D|---2------------2-------------------------|
A|-0------------0---------------------------|
E|------------------------------------------|
Parte 3 de 3
        E
E|-------0-x-0--------0-x-0-----------------|
B|-------0-x-0--------0-x-0-----------------|
G|-----1---x-1------1---x-1-----------------|
D|---2------------2-------------------------|
A|------------------------------------------|
E|-0------------0---------------------------|

Estrofe:

             A
Não é sobre ter
                               D
Todas as pessoas do mundo pra si
           A
É sobre saber
                                    E
Que em algum lugar alguém zela por ti

            A
É sobre cantar e poder escutar 
                D
Mais do que a própria voz
            A
É sobre dançar
                                E
Na chuva de vida que cai sobre nós

Refrão:

     D
É saber se sentir infinito
        E
Num universo tão vasto e bonito
            A
É saber sonhar
   D
Então fazer valer a pena 
      E
Cada verso daquele poema
             A
Sobre acreditar

Estrofe:

Não é sobre chegar 
                          D
No topo do mundo e saber que venceu
             A
É sobre escalar
                                  E
E sentir que o caminho te fortaleceu

               A
É sobre ser abrigo
                               D
E também ter morada em outros corações
              A
E assim ter amigos
                          E
Contigo em todas as situações

Refrão:

   D
A gente não pode ter tudo
        E
Qual seria a graça do mundo
            A
Se fosse assim
    D
Por isso eu prefiro sorrisos 
         E
E os presentes que a vida trouxe
              A
Pra perto de mim

Estrofe:

Não é sobre tudo
                                   D
Que o seu dinheiro é capaz de comprar
             A
E sim sobre cada momento
                       E
Sorriso a se compartilhar

              A
Também não é sobre 

Correr contra o tempo
                D
Pra ter sempre mais
               A
Porque quando menos se espera 
                      E
A vida já ficou pra trás

Refrão:

   D
Segura teu filho no colo
    E
Sorria e abraça os teus pais 
                 A
Enquanto estão aqui

       D
Que a vida é trem bala, parceiro
     E
E a gente é só passageiro 
           A
Prestes a partir

   D          E           A
Laiá, laiá, laiá, laiá, laiá

   D          E           A
Laiá, laiá, laiá, laiá, laiá

Refrão Final:

   D
Segura teu filho no colo
    E
Sorria e abraça os teus pais 
                 A
Enquanto estão aqui

       D
Que a vida é trem bala, parceiro
     E
E a gente é só passageiro 
           A
Prestes a partir
Acordes para:
    Colaboração e revisão:
    • Juliana Teles
    • Rodrigo Souza

    0 comentários

      mostrar mais comentários

      Conseguiu tocar?

      20tocaram2ainda não

      Grave um vídeo tocando Trem-Bala e mande pra gente!

      00:00 / 00:00
      outros vídeos desta música
      repetirqualidadeAutomático
      Outro vídeos desta música
        00:00 / 00:00
        OK