Cifra Club

Cuando me enamoro

Andrea Bocelli

Cifra: Principal (violão e guitarra)
Selo Cifra Club: esta cifra foi revisada para atender aos critérios oficiais da nossa Equipe de Qualidade.
tom: Bb

Intro:
                                A#
E|---------------------------5(6)----------------------|
B|----------------------6-8----------------------------|
G|----------------7--8---------------------------------|
D|----7(8)---10----------------------------------------|

             Dm
E|--8(10)---------------------------------------------|
B|---------8(10)--------------------------------------|
G|---------------------------------------------------|
D|---------------------------------------------------|

                          Cm                       F7
E|---------5--6--5-----------------------------------|
B|---6--8-----------6---6(8)-------------------------|
G|-----------------------------------------8(10)--10-|
D|---------------------------------------------------|

                        A#
                        Cuando me enamoro…
E|---------------------------------------------------|
B|---------------------------------------------------|
G|--10-10--7-----------------------------------------|
D|------------10--8----------------------------------|

Requinto intermedio de la canción:
E|--------------------------------------------------|
B|---------------6-6(8)--6--------------------------|
G|----------7-8-------------8-7---------------------|
D|--7-8-10------------------------------------------|

E|---------------------------------------------|
B|------6(8)-6---------------------------------|
G|--7-8--------8-7-----------------------------|
D|---------------------------------------------|
                       F7
E|---------------------------------------------|
B|------6(8)-6---------------------------------|
G|--7-8--------8-7-----8-----------------------|
D|------------------10-------------------------|
                      Cm           F7
E|----------------5-6-5--8-6-5-8--5------5-----|
B|------------6-8-------------------8(6)-------|
G|--------7-8----------------------------------|
D|-7-8-10--------------------------------------|
       A#
E|-------------------------------------------|
B|--8-6-----6(8)-----------------------------|
G|------8-7----------------------------------|
D|-------------------------------------------|

E|--6--------6-------------------------------|
B|-----8--6-----6----------------------------|
G|------------------8-----7(8)---------------|
D|---------------------8---------------------|
Outros vídeos desta música
    1.604 exibições
      • ½ Tom
      • A
      • Bb
      • B
      • C
      • Db
      • D
      • Eb
      • E
      • F
      • F#
      • G
      • Ab
    • Adicionar à lista

    Afinação da cifra

    Afinador online

      0 comentários

      Ver todos os comentários

      Conseguiu tocar?

      0Tocaram1Ainda não

      Grave um vídeo tocando Cuando me enamoro e nos envie!

      Toque também

      1. Imagem do artista Josh GrobanYou Raise Me Up Josh Groban
      2. Imagem do artista Luciano PavarottiO Sole Mio Luciano Pavarotti
      3. Imagem do artista Il DivoHallelujah (Aleluya) Il Divo
      4. Imagem do artista Alessandro SafinaLuna Alessandro Safina

      Entre para o Cifra Club PRO

      Tenha acesso a benefícios exclusivos no App e no Site

      • Chega de anúncios

      • Badges exclusivas

      • Mais recursos no app do Afinador

      • Atendimento Prioritário

      • Aumente seu limite de lista

      • Ajude a produzir mais conteúdo

      Cifra Club Pro

      Aproveite o Cifra Club com benefícios exclusivos e sem anúncios
      Cifra Club Pro
      Aproveite o Cifra Club com benefícios exclusivos e sem anúncios
      OK