Cifra Club

Anpanman

BTS

Cifra (violão e guitarra)
Selo Cifra Club: esta cifra foi revisada para atender aos critérios oficiais da nossa Equipe de Qualidade.
tom: Em
E|---------------------------------------------------------------------------------|




Intro:
Guitar I

e| |--------------------------------------------------------------
B| |-----------------------------------4-4---4-----5-----4---4----
G| |---4-----4-----4-5---5-4-----4-----4-------4-------4-------4--
D| |-----5-----5---------------5---5---4---4-----4---4-----4------
A| |-----------------------------------2--------------------------
E| |-3-----3-----3-----3-----3------------------------------------

E|------------------------------------------------------------------|
B|-5-5---5-----6-----5---5-------4-----4-----4----4---4---4---------|
G|-5-------5-------5-------5-------5-----5-----5----5---5---5-------|
D|-5---5-----5---5-----5-------5-----5-----5-----5------------------|
A|-3----------------------------------------------------------------|
E|------------------------------------------------------------------|


E|---------------------------------------------------------------------------------|

Verse I:
Guitar I

e| |--------------------------------------------------------------
B| |-----------------------------------4-4---4-----5-----4---4----
G| |---4-----4-----4-5---5-4-----4-----4-------4-------4-------4--
D| |-----5-----5---------------5---5---4---4-----4---4-----4------
A| |-----------------------------------2--------------------------
E| |-3-----3-----3-----3-----3------------------------------------

E|--------------------------------------------------------------|
B|-5-5---5-----6----5---5-------4-----4-----4----4---4---4------|
G|-5-------5-------5------5-------5-----5-----5----5---5---5----|
D|-5---5-----5---5----5-------5-----5-----5-----5---------------|
A|-3------------------------------------------------------------|
E|--------------------------------------------------------------|

E|--------------------------------------------------------------|
B|-----------------------------------4-4---4-----5-----4---4----|
G|---4-----4-----4-5---5-4-----4-----4-------4-------4-------4--|
D|-----5-----5---------------5---5---4---4-----4---4-----4------|
A|-----------------------------------2--------------------------|
E|-3-----3-----3-----3-----3------------------------------------|

E|--------------------------------------------------------------|
B|-5-5---5-----6----5---5-------4-----4-----4----4---4---4------|
G|-5-------5-------5------5-------5-----5-----5----5---5---5----|
D|-5---5-----5---5----5-------5-----5-----5-----5---------------|
A|-3------------------------------------------------------------|
E|--------------------------------------------------------------|


Guitar II
(distortion)
E|--x--x--------x--x-----------------|
B|--x--x--------x--x-----------------|
G|--x--x--------x--x-----------------|
D|-10-10-------10-10-----------------|
A|-10-10-------10-10-----------------|
E|--8--8--------8--8-----------------|

   Uhuh!....    Uhuh!...

E|---------------------------------------------------------------------------------|


Chorus:

Guitar I
(not shown actual strumming pattern)
E|-------------------------------x-x-x-----|
B|-----------x-x-x-x---x-x-x-x---4-4-4-----|
G|-4-4-4-4---4-4-4-4---5-5-5-5---5-5-5-----|
D|-3-3-3-3---x-x-x-x---x-x-x-x---x-x-x-----|
A|-x-x-x-x---2-2-2-2---3-3-3-3---3-3-3-----|
E|-3-3-3-3---x-x-x-x---x-x-x-x---x-x-x-----|


Guitar II
(distortion)
E|-------------------------------------------------------------------------------|
B|-------------------------------------------------------------------------------|
G|-4~~~~---4h5-4--------8~~~~---8h9-8--------------------------------------------|
D|-x-------------5~-----x-------------9~---10///--12///--13///-----15~------17~--|
A|-5~~~~----------------9~~~~----------------------------------------------------|
E|-3~~~~----------------7~~~~----------------------------------------------------|


E|---------------------------------------------------------------------------------|


Verse II
Guitar I

e| |--------------------------------------------------------------
B| |-----------------------------------4-4---4-----5-----4---4----
G| |---4-----4-----4-5---5-4-----4-----4-------4-------4-------4--
D| |-----5-----5---------------5---5---4---4-----4---4-----4------
A| |-----------------------------------2--------------------------
E| |-3-----3-----3-----3-----3------------------------------------

E|----------------------------------------------------------------|
B|-5-5---5-----6-----5---5-------4-----4-----4-----4---4---4------|
G|-5-------5-------5-------5-------5-----5-----5-----5---5---5----|
D|-5---5-----5---5----5--------5-----5-----5-----5----------------|
A|-3--------------------------------------------------------------|
E|----------------------------------------------------------------|

E|--------------------------------------------------------------|
B|-----------------------------------4-4---4-----5-----4---4----|
G|---4-----4-----4-5---5-4-----4-----4-------4-------4-------4--|
D|-----5-----5---------------5---5---4---4-----4---4-----4------|
A|-----------------------------------2--------------------------|
E|-3-----3-----3-----3-----3------------------------------------|

E|----------------------------------------------------------------|
B|-5-5---5-----6-----5---5-------4-----4-----4-----4---4---4------|
G|-5-------5-------5-------5-------5-----5-----5-----5---5---5----|
D|-5---5-----5---5-----5-------5-----5-----5-----5----------------|
A|-3-------------------------------------------------------------|
E|---------------------------------------------------------------|


Guitar II
(distortion)
E|--x--x--------x--x----------------|
B|--x--x--------x--x----------------|
G|--x--x--------x--x----------------|
D|-10-10-------10-10----------------|
A|-10-10-------10-10----------------|
E|--8--8--------8--8----------------|

   Uhuh!....    Uhuh!...

E|---------------------------------------------------------------------------------|


Chorus:

Guitar I
(not shown actual strumming pattern)
E|-------------------------------x-x-x-----|
B|-----------x-x-x-x---x-x-x-x---4-4-4-----|
G|-4-4-4-4---4-4-4-4---5-5-5-5---5-5-5-----|
D|-3-3-3-3---x-x-x-x---x-x-x-x---x-x-x-----|
A|-x-x-x-x---2-2-2-2---3-3-3-3---3-3-3-----|
E|-3-3-3-3---x-x-x-x---x-x-x-x---x-x-x-----|


Guitar II
(distortion)
E|----------------------------------------------------------------------------|
B|----------------------------------------------------------------------------|
G|-4~~~~---4h5-4--------8~~~~---8h9-8-----------------------------------------|
D|-x-------------5~-----x-------------9~---10///--12///--13///---15///////----|
A|-5~~~~----------------9~~~~-------------------------------------------------|
E|-3~~~~----------------7~~~~-------------------------------------------------|


E|---------------------------------------------------------------------------------|

Bridge:

Guitar I
(not shown actual strumming pattern)
E|-------------------------------x-x-x-----|
B|-----------x-x-x-x---x-x-x-x---4-4-4-----|
G|-4-4-4-4---4-4-4-4---5-5-5-5---5-5-5-----|
D|-3-3-3-3---x-x-x-x---x-x-x-x---x-x-x-----(2x)|
A|-x-x-x-x---2-2-2-2---3-3-3-3---3-3-3-----|
E|-3-3-3-3---x-x-x-x---x-x-x-x---x-x-x-----|



Guitar II
(distortion)
e| |-------------------------------------------------------------------------------------------
B| |-------------------------------------------------------------------------------------------
G| |--------------------------------------------------------------------12///////--14///////---
D| |-17/////////////---13///////---16////////----17///////----13//////-------------------------
A| |-------------------------------------------------------------------------------------------
E| |-------------------------------------------------------------------------------------------

E|-------------------------------------------------------------|
B|-------------------------------------------------------------|
G|-12///--11///////--14/////-----------------------------------|
D|---------------------------17/////--14/////-13/////-13\10~---|
A|-------------------------------------------------------------|
E|-------------------------------------------------------------|


E|---------------------------------------------------------------------------------|


Verse III:
Guitar I

e| |--------------------------------------------------------------
B| |-----------------------------------4-4---4-----5-----4---4----
G| |---4-----4-----4-5---5-4-----4-----4-------4-------4-------4--
D| |-----5-----5---------------5---5---4---4-----4---4-----4------
A| |-----------------------------------2--------------------------
E| |-3-----3-----3-----3-----3------------------------------------

E|---------------------------------------------------------------x----|
B|-5-5---5-----6-----5---5-------4-----4-----4-----4---4---4-----x----|
G|-5-------5-------5-------5-------5-----5-----5-----5---5---5---4----|
D|-5---5-----5---5-----5-------5-----5-----5-----5---------------x----|
A|-3-------------------------------------------------------------5----|
E|---------------------------------------------------------------3----|


Guitar II
(distortion)
    G           B         C             Cm              G
E|------------------------------------------------------x-----|
B|------------------------------------------------------x-----|
G|---------------------------------------x--------------4-----|
D|--------------------------------------10--------------x-----|
A|--------------------------------------10-(x13)--------5-----|
E|---------------------------------------8--------------3-----|
Outros vídeos desta música
    37 exibições
      • ½ Tom
      • Am
      • Bbm
      • Bm
      • Cm
      • C#m
      • Dm
      • Ebm
      • Em
      • Fm
      • F#m
      • Gm
      • G#m
    • Adicionar à lista

    Afinação da cifra

    Afinador online

      0 comentários

      Ver todos os comentários

      Entre para o Cifra Club PRO

      Tenha acesso a benefícios exclusivos no App e no Site

      • Chega de anúncios

      • Badges exclusivas

      • Mais recursos no app do Afinador

      • Atendimento Prioritário

      • Aumente seu limite de lista

      • Ajude a produzir mais conteúdo

      Cifra Club Pro

      Aproveite o Cifra Club com benefícios exclusivos e sem anúncios
      Cifra Club Pro
      Aproveite o Cifra Club com benefícios exclusivos e sem anúncios
      Ops (: Contenido disponible sólo en portugués.
      OK