Cifra Club

Divina Comédia Humana

Belchior

Cifra: Principal (violão e guitarra)
Selo Cifra Club: esta cifra foi revisada para atender aos critérios oficiais da nossa Equipe de Qualidade.
tom: A
[Intro] E7M(9)

F#m7(9)                            G#m7
Estava mais angustiado que um goleiro na hora do gol
  F#m7                  A                 E
Quando você entrou em mim  como um sol no quintal
F#m7                                     G#m7
Aí um analista amigo meu disse que desse jeito não vou ser feliz direito
    F#m7                     A                          E   
Porque o amor é uma coisa mais profunda que um encontro casual

F#m7                                      G#m7
Aí um analista amigo meu disse que desse jeito não vou viver satisfeito
         F#m7                     A                        E  
Porque o amor é uma coisa mais profunda que um transa sensual

 F#m7
Deixando a profundidade de lado
                  G#m7
Eu quero é ficar colado à pele dela noite e dia
    F#m7                     A                       E
Fazendo tudo e de novo dizendo sim à paixão morando na filosofia
 F#m7
Deixando a profundidade de lado
                 G#m7
Eu quero é ficar colado à pele dela noite e dia
         F#m7                    A                  E
Fazendo tudo e de novo dizendo sim à paixão morando na filosofia

[Tab - Solo]

                        F#m
E|-------------4-5-7~---5-5-5--5-5-5555~-------------|
B|-------4-5-7---------------------------------------|
G|---4-6---------------------------------------------|
D|---------------------------------------------------|
A|---------------------------------------------------|
E|---------------------------------------------------|

                     G#m
E|---7-5-4h5p5---------------------------------------|
B|-------------7-5---4h5h7---------------------------|
G|-------------------------4-4-4-4-444~--------------|
D|---------------------------------------------------|
A|---------------------------------------------------|
E|---------------------------------------------------|

                   F#m                   A
E|---7(9)-7-5--5(p4h5)---7-5-4-5--5p4-----------------|
B|-----------------------------------7-5-2-----------|
G|---------------------------------------------------|
D|---------------------------------------------------|
A|---------------------------------------------------|
E|---------------------------------------------------|

                   E
E|-----------2-4-5-7~--------------------------------|
B|-----2-4-5-----------------------------------------|
G|---4-----------------------------------------------|
D|---------------------------------------------------|
A|---------------------------------------------------|
E|---------------------------------------------------|

E|---------------------------------------------------|
B|---10h12p10-9h10p9-7h9p7-5h7p7-4h5p4-2h4p2-0h2p0---|
G|---------------------------------------------------|
D|---------------------------------------------------|
A|---------------------------------------------------|
E|---------------------------------------------------|

E|---------------------------------------------------|
B|---------------------------------------------------|
G|-----2-1-----2--4--6~------------------------------|
D|---4-----------------------------------------------|
A|---------------------------------------------------|
E|---------------------------------------------------|


     F#m7                         G#m7
Eu quero gozar no seu céu, pode ser no seu inferno
 F#m7                    A                 E
Viver a divina comédia humana onde nada é eterno
     F#m7                         G#m7
Eu quero gozar no seu céu, pode ser no seu inferno
 F#m7                    A                 E
Viver a divina comédia humana onde nada é eterno

F#m7                                           G#m7
Ora direis, ouvir estrelas, certo perdeste o senso eu vos direi no entanto
          F#m7                              A
Enquanto houver espaço, corpo e tempo e algum modo de dizer não
    E
Eu canto

F#m7                                       G#m7
Ora direis, ouvir estrelas, certo perdeste o senso eu vos direi no entanto
          F#m7                              A
Enquanto houver espaço, corpo e tempo e algum modo de dizer não
       E
Eu canto
          F#m7                              A
Enquanto houver espaço, corpo e tempo e algum modo de dizer não
       E
Eu canto
          F#m7                              A
Enquanto houver espaço, corpo e tempo e algum modo de dizer não
       E
Eu canto
          F#m7                              A
Enquanto houver espaço, corpo e tempo e algum modo de dizer não
       E9  
Eu canto

[Final] F#m  E9  F#m
        E9  F#m  E9
Outros vídeos desta música
    401.828 exibições
      • ½ Tom
      • A
      • Bb
      • B
      • C
      • Db
      • D
      • Eb
      • E
      • F
      • F#
      • G
      • Ab
    • Adicionar à lista

    Afinação da cifra

    Afinador online

      0 comentários

      Ver todos os comentários

      Entre para o Cifra Club PRO

      Tenha acesso a benefícios exclusivos no App e no Site

      • Chega de anúncios

      • Badges exclusivas

      • Mais recursos no app do Afinador

      • Atendimento Prioritário

      • Aumente seu limite de lista

      • Ajude a produzir mais conteúdo

      Cifra Club Pro

      Aproveite o Cifra Club com benefícios exclusivos e sem anúncios
      Cifra Club Pro
      Aproveite o Cifra Club com benefícios exclusivos e sem anúncios
      Ops (: Contenido disponible sólo en portugués.
      OK