Cifra Club

Medo de Avião

Belchior

Cifra: Principal (violão e guitarra)
Selo Cifra Club: esta cifra foi revisada para atender aos critérios oficiais da nossa Equipe de Qualidade.
tom: Em
[Intro] C  D  Am7
        Bm7  C  D

  C           D                      Am7
E|----------------------------------------|
B|------5--8--7--5----------------------5-|
G|5---5--------------6~7-6--5--------5----|
D|----------------------------------------|
A|----------------------------------------|
E|----------------------------------------|

      Bm7           C             D
E|----4~5-4-------------------------------|
B|-8----------7--6----------5--8---7--6--7|
G|------------------5-----5---------------|
D|----------------------------------------|
A|----------------------------------------|
E|----------------------------------------|

     Em        Em7M      Em7       Em6
E|----------------------------------------|
B|-------0----------0---------0---------0-|
G|-----0----------0---------0---------0---|
D|---5----------5---------5---------5-----|
A|-7----------6---------5---------4-------|
E|----------------------------------------|

 G       D/F#      Em
Foi por medo de avião
            C                 D          Bm  D
Que eu segurei pela primeira vez na tua mão
    G          D/F#          Em
Um gole de conhaque, aquele toque em teu cetim
     C           D            G
Que coisa adolescente, James Dean

( G    C  D ) )
( G    C  D ) )

     Em        Em        Em7M      Em7M
E|----------------------------------------|
B|-------0----------0---------0---------0-|
G|-----0----------0---------0---------0---|
D|---5----------5---------5---------5-----|
A|-7----------7---------6---------6-------|
E|----------------------------------------|

     Em7       Em7       Em6       Em6
E|----------------------------------------|
B|-------0----------0---------0---------0-|
G|-----0----------0---------0---------0---|
D|---5----------5---------5---------5-----|
A|-5----------5---------4---------4-------|
E|----------------------------------------|

      C        G/B       Am7       C/G
E|----------------------------------------|
B|-----1----------1---------1---------1---|
G|-----0----------0---------0---------0---|
D|----------------------------------------|
A|-3----------2---------0-----------------|
E|--------------------------------3-------|

      D        D/E       D/F       D/F#
E|-----2-2--------2-2-------2-2-------2-2-|
B|-----3-3--------3-3-------3-3-------3-3-|
G|----------------------------------------|
D|-0--------------------------------------|
A|----------------------------------------|
E|------------0---------1---------2-------|

 G       D/F#      Em
Foi por medo de avião
            C                 D          Bm  D
Que eu segurei pela primeira vez na tua mão
     G            D/F#       Em
Não fico mais nervoso, você já não grita
         C           D
E a aeromoça, sexy, fica mais bonita

     Em        Em        Em7M      Em7M
E|----------------------------------------|
B|-------0----------0---------0---------0-|
G|-----0----------0---------0---------0---|
D|---5----------5---------5---------5-----|
A|-7----------7---------6---------6-------|
E|----------------------------------------|

     Em7       Em7       Em6       Em6
E|----------------------------------------|
B|-------0----------0---------0---------0-|
G|-----0----------0---------0---------0---|
D|---5----------5---------5---------5-----|
A|-5----------5---------4---------4-------|
E|----------------------------------------|

      C        G/B       Am7       C/G
E|----------------------------------------|
B|-----1----------1---------1---------1---|
G|-----0----------0---------0---------0---|
D|----------------------------------------|
A|-3----------2---------0-----------------|
E|--------------------------------3-------|

      D        D/E       D/F       D/F#
E|-----2-2--------2-2-------2-2-------2-2-|
B|-----3-3--------3-3-------3-3-------3-3-|
G|----------------------------------------|
D|-0--------------------------------------|
A|----------------------------------------|
E|------------0---------1---------2-------|

 G       D/F#      Em
Foi por medo de avião
            C                 D          Bm  D
Que eu segurei pela primeira vez na tua mão
G            D/F#        Em
Agora ficou fácil, todo mundo compreende
        C            D                  G   D
Aquele toque Beatle, I wanna hold your hand
G            D/F#        Em.         .         G
Agora ficou fácil, todo mundo compreende
       C             D
Aquele toque Beatle, I wanna hold your hand
        C            D                  G
Aquele toque Beatle, I wanna hold your hand
             G   D/F#  Em
Yeh   yeh   yeh
             C
Yeh   yeh   yeh
             G
Yeh   yeh   yeh
Outros vídeos desta música
    264.637 exibições
    • Simplificar cifra
      • ½ Tom
      • Am
      • Bbm
      • Bm
      • Cm
      • C#m
      • Dm
      • Ebm
      • Em
      • Fm
      • F#m
      • Gm
      • G#m
    • Adicionar à lista

    Afinação da cifra

    Afinador online

      0 comentários

      Ver todos os comentários

      Entre para o Cifra Club PRO

      Tenha acesso a benefícios exclusivos no App e no Site

      • Chega de anúncios

      • Badges exclusivas

      • Mais recursos no app do Afinador

      • Atendimento Prioritário

      • Aumente seu limite de lista

      • Ajude a produzir mais conteúdo

      Cifra Club Pro

      Aproveite o Cifra Club com benefícios exclusivos e sem anúncios
      Cifra Club Pro
      Aproveite o Cifra Club com benefícios exclusivos e sem anúncios
      Ops (: Contenido disponible sólo en portugués.
      OK