Cifra Club

Medo de Avião

Belchior

Cifra: Principal
exibições 160.363
Tom: G
[Intro]  C  D  Am7  Bm7  C  D


     Em5 Em7+ Em7 Em9   Em5    Em7+      Em7     Em9
E|------------------|----------------------------------|
B|----0---0---0---0-|----0---0---0---0---0---0---0---0-|
G|---0---0---0---0--|---0---0---0---0---0---0---0---0--|
D|--5---5---5---5---|--5---5---5---5---5---5---5---5---|
A|-7---6---5---4----|-7---7---6---6---5---5---4---4----|
E|------------------|----------------------------------|

[Riff]

      C   C/B Am7 G    D
E|---------------------------------------|
B|----0---0---0---0---3-3--3-3--3-3--3-3-|
G|---0---0---0---0----2-2--2-2--2-2--2-2-|
D|--5---5---5---5------------------------|
A|-3---2---0-----------------------------|
E|-------------3-----2----2----2----2----|

 G       D/F#      Em
Foi por medo de avião
            C                 D          Bm  D
Que eu segurei pela primeira vez na tua mão
    G          D/F#          Em
Um gole de conhaque, aquele toque em teu cetim
     C           D            G
Que coisa adolescente, James Dean

( G    C  D )
( G    C  D )
( Em5 Em7+ Em7 Em9 )
( C C/B Am7 D )

 G       D/F#      Em
Foi por medo de avião
            C                 D          Bm  D
Que eu segurei pela primeira vez na tua mão
     G            D/F#       Em
Não fico mais nervoso, você já não grita
         C           D
E a aeromoca, sexy, fica mais bonita

( Em5  Em7+  Em7  Em9 )
( C  C/B  Am7  D )

 G       D/F#      Em
Foi por medo de avião
            C                 D          Bm  D
Que eu segurei pela primeira vez na tua mão
G            D/F#        Em
Agora ficou fácil, todo mundo compreende
        C            D                  G   D
Aquele toque Beatle, I wanna hold your hand
G            D/F#        Em
Agora ficou fácil, todo mundo compreende
       C             D                  Bsus4  B
Aquele toque Beatle, I wanna hold your hand
        C            D                  G
Aquele toque Beatle, I wanna hold your hand
             G   D/F#  Em
YEH   YEH   YEH
             C
YEH   YEH   YEH
             G
YEH   YEH   YEH
Acordes para:
    Colaboração e revisão:

    0 comentários

      mostrar mais comentários

      Conseguiu tocar?

      8tocaram0ainda não

      Grave um vídeo tocando Medo de Avião e mande pra gente!

      00:00 / 00:00
      outros vídeos desta música
      repetirqualidadeautomática
      Outro vídeos desta música
        00:00 / 00:00
        automática
        OK