Cifra Club

Medo de Avião

Belchior

Cifra: Principal (violão e guitarra)
tom: Em
[Intro] C  D  Am7   
        Bm7  C  D

     Em        Em7+      Em7       Em6
E|----------------------------------------|
B|-------0----------0---------0---------0-|
G|-----0----------0---------0---------0---|
D|---5----------5---------5---------5-----|
A|-7----------6---------5---------4-------|
E|----------------------------------------|

 G       D/F#      Em
Foi por medo de avião
            C                 D          Bm  D
Que eu segurei pela primeira vez na tua mão
    G          D/F#          Em
Um gole de conhaque, aquele toque em teu cetim
     C           D            G
Que coisa adolescente, James Dean

( G    C  D )
( G    C  D )

     Em        Em        Em7+      Em7+
E|----------------------------------------|
B|-------0----------0---------0---------0-|
G|-----0----------0---------0---------0---|
D|---5----------5---------5---------5-----|
A|-7----------7---------6---------6-------|
E|----------------------------------------|

     Em7       Em7       Em6       Em6
E|----------------------------------------|
B|-------0----------0---------0---------0-|
G|-----0----------0---------0---------0---|
D|---5----------5---------5---------5-----|
A|-5----------5---------4---------4-------|
E|----------------------------------------|

      C        G/B       Am7       C/G
E|----------------------------------------|
B|-----1----------1---------1---------1---|
G|-----0----------0---------0---------0---|
D|----------------------------------------|
A|-3----------2---------0-----------------|
E|--------------------------------3-------|

      D        D/E       D/F       D/F#
E|-----2-2--------2-2-------2-2-------2-2-|
B|-----3-3--------3-3-------3-3-------3-3-|
G|----------------------------------------|
D|-0--------------------------------------|
A|----------------------------------------|
E|------------0---------1---------2-------|

 G       D/F#      Em
Foi por medo de avião
            C                 D          Bm  D
Que eu segurei pela primeira vez na tua mão
     G            D/F#       Em
Não fico mais nervoso, você já não grita
         C           D
E a aeromoça, sexy, fica mais bonita

     Em        Em        Em7+      Em7+
E|----------------------------------------|
B|-------0----------0---------0---------0-|
G|-----0----------0---------0---------0---|
D|---5----------5---------5---------5-----|
A|-7----------7---------6---------6-------|
E|----------------------------------------|

     Em7       Em7       Em6       Em6
E|----------------------------------------|
B|-------0----------0---------0---------0-|
G|-----0----------0---------0---------0---|
D|---5----------5---------5---------5-----|
A|-5----------5---------4---------4-------|
E|----------------------------------------|

      C        G/B       Am7       C/G
E|----------------------------------------|
B|-----1----------1---------1---------1---|
G|-----0----------0---------0---------0---|
D|----------------------------------------|
A|-3----------2---------0-----------------|
E|--------------------------------3-------|

      D        D/E       D/F       D/F#
E|-----2-2--------2-2-------2-2-------2-2-|
B|-----3-3--------3-3-------3-3-------3-3-|
G|----------------------------------------|
D|-0--------------------------------------|
A|----------------------------------------|
E|------------0---------1---------2-------|

 G       D/F#      Em
Foi por medo de avião
            C                 D          Bm  D
Que eu segurei pela primeira vez na tua mão
G            D/F#        Em
Agora ficou fácil, todo mundo compreende
        C            D                  G   D
Aquele toque Beatle, I wanna hold your hand
G            D/F#        Em
Agora ficou fácil, todo mundo compreende
       C             D                  Bsus4  B
Aquele toque Beatle, I wanna hold your hand
        C            D                  G
Aquele toque Beatle, I wanna hold your hand
             G   D/F#  Em
Yeh   yeh   yeh
             C
Yeh   yeh   yeh
             G
Yeh   yeh   yeh
Composição de Belchior
Colaboração e revisão:
201.640 exibições
  • Simplificar cifra
    • ½ Tom
    • Am
    • Bbm
    • Bm
    • Cm
    • C#m
    • Dm
    • Ebm
    • Em
    • Fm
    • F#m
    • Gm
    • G#m
  • Adicionar à lista

    0 comentários

    Ver todos os comentários

    Conseguiu tocar?

    10 Tocaram 1 Ainda não

    Grave um vídeo tocando Medo de Avião e nos envie!

    00:00 / 00:00
    Outros vídeos desta música
    Repetir Qualidade Automático
    Outros vídeos desta música
    00:00 / 00:00
    Automático

    Cifra Club Pro

    Aproveite o Cifra Club com benefícios exclusivos e sem anúncios
    Cifra Club Pro
    Aproveite o Cifra Club com benefícios exclusivos e sem anúncios
    OK