Cifra Club

Theres No Other Way

Blur

Cifra: Principal (violão e guitarra)
Tom: Db (forma dos acordes no tom de B) Capotraste na 2ª casa
[Intro] D  C  A  C  A 
        D  C  A  C  A 

E|----------------------------------------------------|
B|--3/10--10-x-10-12-10-----10/-1-1-3-----3-3---------|
G|--3/10--10-x-10-12-10-----10/-1-1-3-----5-4---------| (2x)
D|--3/10--10-x-10-12-10-----10/-1-1-3-----5-5---------|
A|----------------------------------------------------|
E|----------------------------------------------------|

( D  C  A  C  A )
( D  C  A  C  A )

[Primeira Parte]

 D                 C
You're taking the fun
A      C      A
Out of everything
 D         C
Making me run
  A           C        A
When I don't want to think
 D                 C
You're taking the fun
A      C      A
Out of everything
D                 C      A   C  A 
I don't want to think at all

[Refrão]

  D        C
There's no other way
  F        G
There's no other way
F                 G 
All that you can do
           D 
Is watch them play

  D        C
There's no other way
  F        G
There's no other way
F                 G 
All that you can do
           D 
Is watch them play

( D  C  A  C  A )
( D  C  A  C  A )

E|----------------------------------------------------|
B|--3/10--10-x-10-12-10-----10/-1-1-3-----3-3---------|
G|--3/10--10-x-10-12-10-----10/-1-1-3-----5-4---------| (2x)
D|--3/10--10-x-10-12-10-----10/-1-1-3-----5-5---------|
A|----------------------------------------------------|
E|----------------------------------------------------|

[Segunda Parte]

 D                 C
You're taking the fun
A      C      A
Out of everything
 D      C
You're making it clear
  A           C        A
When I don't want to think
        D             C
You're taking me up when
A      C      A
I dont want to go up anymore
D                 C      A   C  A 
I'm just watching it all

[Refrão]

  D        C
There's no other way
  F        G
There's no other way
F                 G 
All that you can do
           D 
Is watch them play

(  D  C  A  C  A )

E|----------------------------------------------------|
B|--3/10--10-x-10-12-10-----10/-1-1-3-----3-3---------|
G|--3/10--10-x-10-12-10-----10/-1-1-3-----5-4---------| (4x)
D|--3/10--10-x-10-12-10-----10/-1-1-3-----5-5---------|
A|----------------------------------------------------|
E|----------------------------------------------------|

[Solo] D  C  A  C  A
       D  C  A  C  A
       D  C  A  C  A
       D  C  A  C  A

[Refrão]

  D        C
There's no other way
  F        G
There's no other way
F                 G 
All that you can do
           D 
Is watch them play

  D        C
There's no other way
  F        G
There's no other way
F                 G 
All that you can do
           D 
Is watch them play

  D        C
There's no other way
  F        G
There's no other way
F                 G 
All that you can do
           D 
Is watch them play

  D        C
There's no other way
  F        G
There's no other way
F                 G 
All that you can do
           D 
Is watch them play

[Final] D  C  A  C
        D  C  A  C
exibições 2.740
Acordes para:
    Composição: Alex James / Damon Albarn / Dave Rowntree / Graham Coxon Colaboração e revisão:
    • Getúlio Vasconcelos

    0 comentários

    mostrar mais comentários

    Conseguiu tocar?

    0 tocaram 1 ainda não

    Grave um vídeo tocando Theres No Other Way e mande pra gente!

    00:00 / 00:00
    outros vídeos desta música
    repetir qualidade Automático
    Outros vídeos desta música
    00:00 / 00:00
    Automático
    OK