Cifra Club

Dorcas

Bombay Bicycle Club

Cifra: Principal (violão e guitarra)
Selo Cifra Club: esta cifra foi revisada para atender aos critérios oficiais da nossa Equipe de Qualidade.
tom: Dm
E|E|-----------------------------------------------------------------||
C RCAS - Bombay Bicycle Club
E|E|-----------------------------------------------------------------||
Tabbed by: Tom
Tuning: DADGAD
Capo: 2nd fret

This tab was created with these two videos:



Part 1 ____________________________________________________________

E|--------------------------------------------------------------|
B|---------0------0------0------0------0------0------0------0---|
G|-------2------2------2------2------2------2------2------2-----| x2
D|-----------0-------------0-------------0-------------0--------|
A|------------------0---------------------------0---------------|
E|----0---------------------------0-----------------------------|

E|--------------------------------------------------------------|
B|---------0------0------0------0------0------0------0------0---|
G|-------0------0------0------0------0------0------0------0-----| x2
D|-----------3-------------3-------------3-------------3--------|
A|------------------1---------------------------1---------------|
E|----0---------------------------0-----------------------------|

E|--------------------------------------------------------------|
B|---------0------0------0------0------0------0------0------0---|
G|-------2------2------2------2------2------2------2------2-----| x2
D|-----------0-------------0-------------0-------------0--------|
A|------------------0---------------------------0---------------|
E|----0---------------------------0-----------------------------|

E|--------------------------------------------------------------|
B|---------0------0------0------0------0------0------0------0---|
G|-------0------0------0------0------0------0------0------0-----| x2
D|-----------3-------------3-------------3-------------3--------|
A|------------------1---------------------------1---------------|
E|----0---------------------------0-----------------------------|

Part 2 ____________________________________________________________

E|--------------------------------------------------------------|
B|---------0------0------0------0------0------0------0------0---|
G|-------0------0------0------0------0------0------0------0-----| x2
D|-----------2-------------2-------------2-------------2--------|
A|------------------3---------------------------3---------------|
E|----2---------------------------2-----------------------------|

E|--------------------------------------------------------------|
B|---------0------0------0------0------0------0------0------0---|
G|-------0------0------0------0------0------0------0------0-----| x2
D|-----------3-------------3-------------3-------------3--------|
A|------------------1---------------------------1---------------|
E|----0---------------------------0-----------------------------|

E|--------------------------------------------------------------|
B|---------0------0------0------0------0------0------0------0---|
G|-------0------0------0------0------0------0------0------0-----|
D|-----------2-------------2-------------2-------------2--------|
A|------------------3---------------------------3---------------|
E|----2---------------------------2-----------------------------|

E|--------------------------------------------------------------|
B|---------0------0------0------0------3------3------3------3---|
G|-------0------0------0------0------0------0------0------0-----|
D|-----------2-------------2-------------2-------------2--------|
A|------------------3---------------------------3---------------|
E|----2---------------------------2-----------------------------|

E|--------------------------------------------------------------|
B|---------3------3------3------3------3------3------3------3---|
G|-------0------0------0------0------0------0------0------0-----| x2
D|-----------3-------------3-------------3-------------3--------|
A|------------------1---------------------------1---------------|
E|----0---------------------------0-----------------------------|

E|--------------------------------------------------------------|
B|---------3------3------3------3------3------3------3------3---|
G|-------0------0------0------0------0------0------0------0-----| x2
D|-----------2-------------2-------------2-------------2--------|
A|------------------3---------------------------3---------------|
E|----2---------------------------2-----------------------------|

Part 3 ____________________________________________________________

E|--------------------------------------------------------------|
B|---------0------0------0------0------0------0------0------0---|
G|-------0------0------0------0------0------0------0------0-----|
D|-----------2-------------2-------------0-------------3--------|
A|------------------3---------------------------3---------------|
E|----3---------------------------3-----------------------------|
                                                                     Repeat these two sections x3
E|--------------------------------------------------------------|
B|---------0------0------0------0------0------0------0------0---|
G|-------4------4------4------4------4------4------4------4-----|
D|-----------4-------------4-------------2-------------2--------|
A|------------------0---------------------------0---------------|
E|----0---------------------------0-----------------------------|

On the 4th time round, play the below then immediately go into part 4.
E|--------------------------------------------------------------|
B|---------0------0------0------0------0------0------0------0---|
G|-------0------0------0------0------0------0------0------0-----|
D|-----------2-------------2-------------0-------------0--------|
A|------------------3---------------------------3---------------|
E|----3---------------------------3-----------------------------|

Part 4 ____________________________________________________________

E|--------------------------------------------------------------|
B|---------0------0------0------0------0------0------0------0---|
G|-------0------0------0------0------0------0------0------0-----|
D|-----------14\12---------9-------------9-------------9--------|
A|------------------0---------------------------0---------------|
E|----0---------------------------0-----------------------------|
                                                                    Repeat these two sections x2
E|--------------------------------------------------------------|
B|---------0------0------0------0------0------0------0------0---|
G|-------0------0------0------0------0------0------0------0-----|
D|-----------9-------------9-------------9-------------9--------|
A|------------------0---------------------------0---------------|
E|----0---------------------------0-----------------------------|

E|--------------------------------------------------------------|
B|---------0------0------0------0------0------0------0------0---|
G|-------0------0------0------0------0------0------0------0-----|
D|-----------14\12---------9-------------9-------------4--------|
A|------------------0---------------------------0---------------|
E|----0---------------------------0-----------------------------|

E|--------------------------------------------------------------|
B|---------0------0------0------0------0------0------0------0---|
G|-------0------0------0------0------0------0------0------0-----| x3
D|-----------7-------------7-------------5-------------4--------|
A|------------------0---------------------------0---------------|
E|----0---------------------------0-----------------------------|

E|--------------------------------------------------------------|
B|---------0------0------0------0------0------0------0------0---|
G|-------0------0------0------0------0------0------0------0-----|
D|-----------14\12---------9-------------9-------------9--------|
A|------------------0---------------------------0---------------|
E|----0---------------------------0-----------------------------|
                                                                    Repeat these two sections x2
E|--------------------------------------------------------------|
B|---------0------0------0------0------0------0------0------0---|
G|-------0------0------0------0------0------0------0------0-----|
D|-----------9-------------9-------------9-------------9--------|
A|------------------0---------------------------0---------------|
E|----0---------------------------0-----------------------------|

E|--------------------------------------------------------------|
B|---------0------0------0------0------0------0------0------0---|
G|-------0------0------0------0------0------0------0------0-----|
D|-----------14\12---------9-------------9-------------4--------|
A|------------------0---------------------------0---------------|
E|----0---------------------------0-----------------------------|

E|--------------------------------------------------------------|
B|---------0------0------0------0------0------0------0------0---|
G|-------0------0------0------0------0------0------0------0-----| x4
D|-----------7-------------7-------------5-------------4--------|
A|------------------0---------------------------0---------------|
E|----0---------------------------0-----------------------------|

Part 5 ____________________________________________________________

E|--------------------------------------------------------------|
B|---------0------0------0------0------0------0------0------0---|
G|-------2------2------2------2------2------2------2------2-----| x3
D|------------------4---------------------------4---------------|
A|-----------0-------------0-------------0-------------0--------|
E|----0---------------------------0-----------------------------|

On the 4th time round, the end is slightly different.
E|--------------------------------------------------------------|
B|---------0------0------0------0------0------0------0------0---|
G|-------2------2------2------2------2------2------2------0-----|
D|------------------4---------------------------4------2--------|
A|-----------0-------------0-------------0----------------------|
E|----0---------------------------0-----------------------------|

Flourish 1:
E|--------------------------------------------------------------|
B|---------0------0------0------0------0------0------0------0---|
G|-------0------0------0------0------0------0------0------0-----|
D|----4------5------4------2------0------2------4------0--------|
A|--------------------------------------------------------------|
E|--------------------------------------------------------------|

Same again but with a different flourish.
E|--------------------------------------------------------------|
B|---------0------0------0------0------0------0------0------0---|
G|-------2------2------2------2------2------2------2------0-----|
D|------------------4---------------------------4------2--------|
A|-----------0-------------0-------------0----------------------|
E|----0---------------------------0-----------------------------|

Flourish 2:
E|--------------------------------------------------------------|
B|---------0------0------0------0------0------0------0------0---|
G|-------0------0------0------0------0------0------0------0-----|
D|----4------5------4------2------0-------------0---------------|
A|---------------------------------------4-------------0--------|
E|--------------------------------------------------------------|

Slightly differernt but with the first floursh again.
E|--------------------------------------------------------------|
B|---------0------0------0------0------0------0------0------0---|
G|-------2------2------2------2------2------2------2------0-----|
D|------------------0---------------------------0------2--------|
A|-----------0-------------0-------------0----------------------|
E|----0---------------------------0-----------------------------|

Flourish 1:
E|--------------------------------------------------------------|
B|---------0------0------0------0------0------0------0------0---|
G|-------0------0------0------0------0------0------0------0-----|
D|----4------5------4------2------0------2------4------0--------|
A|--------------------------------------------------------------|
E|--------------------------------------------------------------|

Slightly differernt again but with a new floursh.
E|--------------------------------------------------------------|
B|---------0------0------0------0------0------0------0------0---|
G|-------2------2------2------2------2------2------2------0-----|
D|------------------0---------------------------0------9--------|
A|-----------0-------------0-------------0----------------------|
E|----0---------------------------0-----------------------------|

Flourish 3:
E|--------------------------------------------------------------|
B|---------0------0------0------0------0------0------0------0---|
G|-------0------0------0------0------0------0------0------0-----|
D|----7------5------4------2------0-------------0---------------|
A|---------------------------------------4-------------0--------|
E|--------------------------------------------------------------|

Slightly differernt but with the first floursh again.
E|--------------------------------------------------------------|
B|---------0------0------0------0------0------0------0------0---|
G|-------2------2------2------2------2------2------2------0-----|
D|------------------4---------------------------4------2--------|
A|-----------0-------------0-------------0----------------------|
E|----0---------------------------0-----------------------------|

Flourish 1:
E|--------------------------------------------------------------|
B|---------0------0------0------0------0------0------0------0---|
G|-------0------0------0------0------0------0------0------0-----|
D|----4------5------4------2------0------2------4------0--------|
A|--------------------------------------------------------------|
E|--------------------------------------------------------------|

Slightly differernt again but with a new, final floursh.
E|--------------------------------------------------------------|
B|---------0------0------0------0------0------0------0------0---|
G|-------2------2------2------2------2------2------2------0-----|
D|------------------4---------------------------4---------------|
A|-----------0-------------0-------------0-------------0--------|
E|----0---------------------------0-----------------------------|

Flourish 4:
E|--------------------------------------------------------------|
B|---------0------0------0------0------0------0------0------0---|
G|-------0------0------0------0------0------0------0------0-----|
D|----5------4------2------0---------------------------0--------|
A|--------------------------------4------2------0---------------|
E|--------------------------------------------------------------|

Part 6 ____________________________________________________________

Final change before going back to some stuff we played eariler.
E|--------------------------------------------------------------|
B|---------0------0------0------0------0------0------0------0---|
G|-------2------2------2------2------2------2------2------2-----| x2
D|-----------0-------------0-------------0-------------0--------|
A|------------------0---------------------------0---------------|
E|----0---------------------------0-----------------------------|

E|--------------------------------------------------------------|
B|---------0------0------0------0------0------0------0------0---|
G|-------0------0------0------0------0------0------0------0-----| x2
D|-----------3-------------3-------------3-------------3--------|
A|------------------1---------------------------1---------------|
E|----0---------------------------0-----------------------------|

E|--------------------------------------------------------------|
B|---------0------0------0------0------0------0------0------0---|
G|-------0------0------0------0------0------0------0------0-----|
D|-----------2-------------2-------------2-------------2--------|
A|------------------3---------------------------3---------------|
E|----2---------------------------2-----------------------------|

E|--------------------------------------------------------------|
B|---------0------0------0------0------0------0------3------3---|
G|-------0------0------0------0------0------0------0------0-----|
D|-----------2-------------2-------------2-------------2--------|
A|------------------3---------------------------3---------------|
E|----2---------------------------2-----------------------------|

E|--------------------------------------------------------------|
B|---------3------3------3------3------3------3------3------3---|
G|-------0------0------0------0------0------0------0------0-----|
D|-----------3-------------3-------------3-------------3--------|
A|------------------1---------------------------1---------------|
E|----0---------------------------0-----------------------------|

E|---------3------3------3------3------3------3------3------3---|
B|--------------------------------------------------------------|
G|-------0------0------0------0------0------0------0------0-----|
D|-----------3-------------3-------------3-------------3--------|
A|------------------1---------------------------1---------------|
E|----0---------------------------0-----------------------------|

E|---------3------3------3------3------3------3------3------3---|
B|--------------------------------------------------------------|
G|-------0------0------0------0------0------0------0------0-----| x2
D|-----------2-------------2-------------2-------------2--------|
A|------------------3---------------------------3---------------|
E|----2---------------------------2-----------------------------|

E|---------3------3------3------3------3------3------3------3---|
B|--------------------------------------------------------------|
G|-------0------0------0------0------0------0------0------0-----| x2
D|-----------3-------------3-------------3-------------3--------|
A|------------------1---------------------------1---------------|
E|----0---------------------------0-----------------------------|

E|---------3------3------3------3------3------3------3------3---|
B|--------------------------------------------------------------|
G|-------0------0------0------0------0------0------0------0-----| x2
D|-----------2-------------2-------------2-------------2--------|
A|------------------3---------------------------3---------------|
E|----2---------------------------2-----------------------------|

Part 7 ____________________________________________________________
From here, a lot if it is just played again, almost exactly the same.

E|--------------------------------------------------------------|
B|---------0------0------0------0------0------0------0------0---|
G|-------0------0------0------0------0------0------0------0-----|
D|-----------2-------------2-------------0-------------3--------|
A|------------------3---------------------------3---------------|
E|----3---------------------------3-----------------------------|
                                                                     Repeat these two sections x3
E|--------------------------------------------------------------|
B|---------0------0------0------0------0------0------0------0---|
G|-------4------4------4------4------4------4------4------4-----|
D|-----------4-------------4-------------2-------------2--------|
A|------------------0---------------------------0---------------|
E|----0---------------------------0-----------------------------|

On the 4th time round, play the below then immediately go into part 4.
E|--------------------------------------------------------------|
B|---------0------0------0------0------0------0------0------0---|
G|-------0------0------0------0------0------0------0------0-----|
D|-----------2-------------2-------------0-------------0--------|
A|------------------3---------------------------3---------------|
E|----3---------------------------3-----------------------------|

Part 8 ____________________________________________________________

E|--------------------------------------------------------------|
B|---------0------0------0------0------0------0------0------0---|
G|-------0------0------0------0------0------0------0------0-----|
D|-----------14\12---------9-------------9-------------9--------|
A|------------------0---------------------------0---------------|
E|----0---------------------------0-----------------------------|
                                                                    Repeat these two sections x3
E|--------------------------------------------------------------|
B|---------0------0------0------0------0------0------0------0---|
G|-------0------0------0------0------0------0------0------0-----|
D|-----------9-------------9-------------9-------------9--------|
A|------------------0---------------------------0---------------|
E|----0---------------------------0-----------------------------|

E|--------------------------------------------------------------|
B|---------0------0------0------0------0------0------0------0---|
G|-------0------0------0------0------0------0------0------0-----|
D|-----------14\12---------9-------------9-------------4--------|
A|------------------0---------------------------0---------------|
E|----0---------------------------0-----------------------------|

E|--------------------------------------------------------------|
B|---------0------0------0------0------0------0------0------0---|
G|-------0------0------0------0------0------0------0------0-----| x4
D|-----------7-------------7-------------5-------------4--------|
A|------------------0---------------------------0---------------|
E|----0---------------------------0-----------------------------|

Part 9 ____________________________________________________________

E|--------------------------------------------------------------|
B|---------0------0------0------0------0------0------0------0---|
G|-------2------2------2------2------2------2------2------0-----|
D|------------------4---------------------------4------2--------|
A|-----------0-------------0-------------0----------------------|
E|----0---------------------------0-----------------------------|

E|--------------------------------------------------------------|
B|---------0------0------0------0------0------0------0------0---|
G|-------0------0------0------0------0------0------0------0-----|
D|----0--------------------0-------------0-------------0--------|
A|-----------4------2-------------2-------------2---------------|
E|--------------------------------------------------------------|

E|------------------------------------|
B|-----------0------------------------|
G|---------0----0-----------------2---|
D|-------0--------0-------------0-----|
A|----2-------------2---------0-------|
E|-------------------------0----------|



| /  slide up
| \  slide down
| h  hammer-on
| p  pull-off
| ~  vibrato
| +  harmonic
| x  Mute note
Outros vídeos desta música
    21 exibições
      • ½ Tom
      • Am
      • Bbm
      • Bm
      • Cm
      • C#m
      • Dm
      • Ebm
      • Em
      • Fm
      • F#m
      • Gm
      • G#m
    • Adicionar à lista

    Afinação da cifra

    Afinador online

      0 comentários

      Ver todos os comentários

      Conseguiu tocar?

      0Tocaram0Ainda não

      Grave um vídeo tocando Dorcas e nos envie!

      Toque também

      1. Imagem do artista FoalsSpanish Sahara Foals
      2. Imagem do artista The MaccabeesToothpaste Kisses The Maccabees
      3. Imagem do artista Cajun Dance PartyAmylase Cajun Dance Party
      4. Imagem do artista Little CometsA Little Opus Little Comets

      Entre para o Cifra Club PRO

      Tenha acesso a benefícios exclusivos no App e no Site

      • Chega de anúncios

      • Badges exclusivas

      • Mais recursos no app do Afinador

      • Atendimento Prioritário

      • Aumente seu limite de lista

      • Ajude a produzir mais conteúdo

      Cifra Club Pro

      Aproveite o Cifra Club com benefícios exclusivos e sem anúncios
      Cifra Club Pro
      Aproveite o Cifra Club com benefícios exclusivos e sem anúncios
      Ops (: Contenido disponible sólo en portugués.
      OK