Cifra Club

Mentalidad Televisiva

Canal Magdalena

Cifra: Principal (violão e guitarra)
Selo Cifra Club: esta cifra foi revisada para atender aos critérios oficiais da nossa Equipe de Qualidade.
tom: A
INTRO :G  

G                                            B  

Ella es mucho mas normal que yo

modelo de nuestra generacion

A       C         C#           D 

como llego a mi fue la casualidad

G                              B  

Como es normal nos juramos amor

eterno , invariable y a todo color

A                           C  - B  - E  

Ella se imagino que yo era un campeon

un moderno matador insensible seductor

Cuando vio lo que yo empezaba a sentir

mi entrega facil comenzo a aburrir

adonde esta el galan de la television

adonde la destruccion

adonde el varon

  G   E     D    C           ( B  )

B)Ella tiene mentalidad televisiva

A)Yo no portaba armas de ninguna especie

no daba vuelta autos ni chocaba motos

tenia corazon y tambien seso

Ella era dada a las frases cliché

hablaba de todo con total madurez

y la imaginacion si es que la tuvo ya la perdio

y en su lugar instalo un video tape

B)Ella tiene ...

   B      A       C    E  

C)Buscate un macho recio que te haga sufrir

Buscate un tipo a la moda y experto en mentir

tipos como yo son bichos raros para ti

B        A           C                   D 

tu tienes la mentalidad de television

              E  

de tu generacion

1 , 2 ,3 ,4 !

E|-----------------------------5--4-5--4--2--0--|
B|----------2-3--2-0| --2--3---------------------
G|--2-2-2---------------------------------------|
D|----------------------------------------------|
A|----------------------------------------------|
E|----------------------------------------------|

E|-------------------------------7--8-7-5-5---5-5-7-8-7-5-------------------------|
B|---------2--3-2-0--2-3-5-2-------------7---------------7-5----------2-3-2-0-----|
G|--2-2-2----------------------------------------------------------2-2-2----------|
D|--------------------------------------------------------------------------------|
A|--------------------------------------------------------------------------------|
E|--------------------------------------------------------------------------------|

E|------------------------------------7--5-4-5-4----| D5--C#5----
B|-2-3| -5--2----7--5-7-5-$-9--7--------------------------------
G|-------------------------------------------------------------|
D|-------------------------------------------------------------|
A|-------------------------------------------------------------|
E|-------------------------------------------------------------|

E|---------------------------------------------------7-5-7-5----|
B|--------------------------------------------------2-3---------|
G|----------------------------------------------------2-4-------|
D|--------------------------------------------------2-4---------|
A|----------2-3-4-5---------------------2-3-4-5-----------------|
E|----2-4-------------| D5-C#5----2-4-----------------------------
Outros vídeos desta música
    210 exibições
      • ½ Tom
      • A
      • Bb
      • B
      • C
      • Db
      • D
      • Eb
      • E
      • F
      • F#
      • G
      • Ab
    • Adicionar à lista

    Afinação da cifra

    Afinador online

      0 comentários

      Ver todos os comentários

      Entre para o Cifra Club PRO

      Tenha acesso a benefícios exclusivos no App e no Site

      • Chega de anúncios

      • Badges exclusivas

      • Mais recursos no app do Afinador

      • Atendimento Prioritário

      • Aumente seu limite de lista

      • Ajude a produzir mais conteúdo

      Cifra Club Pro

      Aproveite o Cifra Club com benefícios exclusivos e sem anúncios
      Cifra Club Pro
      Aproveite o Cifra Club com benefícios exclusivos e sem anúncios
      OK