Cifra Club

Eu Cuido de Ti

Canção & Louvor

Cifra: Principal (violão e guitarra)
exibições 205.106
Tom: A#
[Intro] Bb  F/A  Eb9  Bb  F

E|----------------------------------------------------|
B|-------------6-6/8---6-6~---------------------------|
G|-3-5-5/7~------------------5-5\3--3--2~-------------|
D|----------------------------------------------------|
A|----------------------------------------------------|
E|----------------------------------------------------|

E|----------------------------------------------------|
B|----------------------------------------------------|
G|-5-7-7/8--7-5---------------------------------------|
D|---------------8--3/5~------------------------------|
A|----------------------------------------------------|
E|----------------------------------------------------|

E|----------------------------------------------------|
B|------------------6--6--8---------------------------|
G|---5/7\5-3-5-5/7-----------5~-----------------------|
D|-5--------------------------------------------------|
A|----------------------------------------------------|
E|----------------------------------------------------|


Primeira Parte:

        Bb                         F/A
Quando todos os meus medos já não cabem mais em mim
          Cm           Eb9       Bb           F
Quando o céu está de bronze e parece que é o fim
          Bb                              F/A
Quando o vento está revolto e o mar não quer se acalmar
           Cm         Eb9        Bb         F
Quando as horas do relógio se demoram a passar
        Eb9                        F
Muitas vezes não consigo os Teus planos compreender
        Cm   Bb/D  Eb           F
Mas prefiro confi__ar sem entender


Refrão:

     Bb      F/A
Eu creio em Ti
     Cm  Eb9    Bb  F
Eu cre___io em Ti
   Bb        F/A
Eu olho pra Ti  
   Cm  Eb9        Bb  F
Espe_______ro em Ti
    

( Eb9  Bb  Gm  Bb  F  Eb/G  F/A )


Segunda Parte:

        Bb                      F/A
Quando você sente medo, do teu lado Eu estou
     Cm           Eb9          Bb          F
E é bom que você saiba que Eu sinto a tua dor
        Bb                     F/A
Nunca, nunca se esqueça que o mar posso acalmar
          Cm          Eb9        Bb            F
E que Eu sei o tempo certo da vitória te entregar
      Eb9                      F
Este tempo é necessário pra te amadurecer
     Cm   Bb/D    Eb         F
E depois tem novidade pra você


Refrão:

    Bb       F/A
Eu cuido de ti
    Cm  Eb9        Bb  F
Eu cui______do de ti
    Bb       F/A
Descansa em Mim
   Cm  Eb9          Bb  F  Eb9
Come_______ce a sorrir


Ponte:

          Bb             Eb9
O que Eu tenho é bem melhor
            Cm         F           Bb  F
Pois só Eu sei, só Eu sei, do amanhã
         Bb            Eb9
Então recebe o abraço Meu
             Cm  F       Bb  F
Pois da tua vida   cuido Eu


Refrão:

    Bb       F/A
Eu cuido de ti
    Cm  Eb9        Bb  F
Eu cui______do de ti
    Bb       F/A
Descansa em Mim
   Cm  Eb9          Bb  F  Eb
Come_______ce a sorrir


Ministração: Bb  F/A  Cm  Bb/D  Eb9
             Bb  F/A  Cm  Bb/D  Eb9


Refrão:

    Bb       F/A
Eu cuido de ti
    Cm  Eb9        Bb  F
Eu cui______do de ti
    Bb       F/A
Descansa em Mim
   Cm  Eb9          Bb  F  Eb
Come_______ce a sorrir

    Bb       F/A
Eu cuido de ti
    Cm  Eb9        Bb  F
Eu cui______do de ti
    Bb       F/A
Descansa em Mim
   Cm  Eb9          Bb  F  Eb9  Bb
Come_______ce a sorrir

0 comentários

mostrar mais comentários

Conseguiu tocar?

16 tocaram 13 ainda não

Grave um vídeo tocando Eu Cuido de Ti e mande pra gente!

00:00 / 00:00
outros vídeos desta música
repetir qualidade Automático
Outro vídeos desta música
00:00 / 00:00
Automático
OK