Cifra Club

Tudo Porque Eu Te Amo Pai

Casa das Máquinas

Cifra: Principal (violão e guitarra)
Selo Cifra Club: esta cifra foi revisada para atender aos critérios oficiais da nossa Equipe de Qualidade.
tom: G
Base (Em Am D G)

Intro Solo 

E|--------------12~~--------------------12~~----------------------------------------|
B|--------10/12-------10^--------10/12----------10^--10~~----8--10^-----------------|
G|----9~~------------------9~~------------------------------------------------------|
D|----------------------------------------------------------------------------------|
A|----------------------------------------------------------------------------------|
E|----------------------------------------------------------------------------------|

E|---------------------------------10/12~----14-14/15--14----12~--12~~------------|
B|--8--10^--10^----8--10^--10^--8-------------------------------------------------|
G|--------------------------------------------------------------------------------|
D|--------------------------------------------------------------------------------|
A|--------------------------------------------------------------------------------|
E|--------------------------------------------------------------------------------|

E|---14-14/15--12~--12~~----14-14/15---12--12/19---19~~--19~~--------------------|
B|-------------------------------------------------------------------------------|
G|-------------------------------------------------------------------------------|
D|-------------------------------------------------------------------------------|
A|-----------------------------------------------------------5-4--2--------------|
E|-----------------------------------------------------------3-2--0--------------|


A música inteira segue com a base
(Em Am D G), mais os solos são lindos.


(Em Am D G)
Tudo porque eu te amo pai 
Tudo porque eu te adoro 

E|---15--------14-------12----------------------------------------------|
B|---18^^------17^^-----15^^----------------------------------------------|
G|---------------------------------------------------------|
D|----------------------------------------------------------|
A|-------------------------------------------------------------|
E|-------------------------------------------------------------|

Tudo porque eu te amo 
Tudo porque eu te amo pai 
Tudo porque eu te amo 
Juro por essa música que faço 
Que eu não quis te magooar pai 
Juro por essa música 
Que eu nunca pensei que você fosse ficar tão zangado 
Mas por favor pai, me entenda 
Pelo menos uma vez 
Eu não estou colocando meus 20 anos de vida em jogo contra os seus 48 
Mas existe uma grande diferença no que você me ensina 
E no que eu aprendo vivendo pela minha própria vida 

E|---15--------14-------12--------12-----14-----15------17------19~~--19~~-19~~---------|
B|---18^^------17^^-----15^^------15^^---17^^---18^^----20^^----------------------------|
G|--------------------------------------------------------------------------------------|
D|--------------------------------------------------------------------------------------|
A|----------------------------------------------------------------------------4---0-----|
E|----------------------------------------------------------------------------2---2-----|

Juro por essa música 
Que eu nunca esqueci você pai 
Juro por essa música 
Que eu acho você um grande sábio homem pai 
Talvez você não saiba 
Mas eu te amo muito 
Eu somente quero achar minhas próprias respostas pai 
Eu só quero consertar sozinho os meus erros pai 
Eu quero criar 
Eu quero amar pai 
E não é só porque você me pôs no mundo 
Que tem que ficar condicionado a mim pelo resto da sua vida não 
Não é isso que eu quero não pai 
Eu quero que como eu você não deixe passar a sua vida em brancas nuvens 
Faça forte as palavras da razão pai 
Jogue um copo d'água sobre aquela pequena chama de dúvida que existe bem no fundo de você 
Só então você sentirá 
Que amar é não querer nada em troca pai 
Sentirá que amor não é sinônimo de possuir pai 
Sentirá que Deus dá o amor 

E|---15--------14-------12----------------|
B|---18^^------17^^-----15^^--------------|
G|----------------------------------------|
D|----------------------------------------|
A|----------------------------------------|
E|----------------------------------------|

Mas é a gente que tem que aprender amá-lo 
E mais ainda pai 
Sentirá que eu, seu filho 
Juro por essa música 
Que é tudo porque eu te amo pai
Outros vídeos desta música
    4.374 exibições
      • ½ Tom
      • A
      • Bb
      • B
      • C
      • Db
      • D
      • Eb
      • E
      • F
      • F#
      • G
      • Ab
    • Adicionar à lista

    Afinação da cifra

    Afinador online

      0 comentários

      Ver todos os comentários

      Entre para o Cifra Club PRO

      Tenha acesso a benefícios exclusivos no App e no Site

      • Chega de anúncios

      • Mais recursos no app do Afinador

      • Atendimento Prioritário

      • Aumente seu limite de lista

      • Ajude a produzir mais conteúdo

      Cifra Club Pro

      Aproveite o Cifra Club com benefícios exclusivos e sem anúncios
      Cifra Club Pro
      Aproveite o Cifra Club com benefícios exclusivos e sem anúncios
      OK