Cifra Club

Amarte a tí

Cristian Castro

Cifra: Principal (violão e guitarra)
Selo Cifra Club: esta cifra foi revisada para atender aos critérios oficiais da nossa Equipe de Qualidade.
tom: E
E|---------------------------------------------|
B|-----5-4---5---------------------------5-4.--|
G|------------6.---6-6-4-----------6---6-------|
D|---6-------------------4-7-6.--6---6---------|
A|--4------------------------------------------|
E|---------------------------------------------|

E|------------------------4.-------------------------------|
B|-----5-4---5-----------5------------5-4-------------5-4.-|
G|------------6.---6-6-4--------6---6-----6.--6-6---6------|
D|---6------------------------6---6---------------6--------|
A|--4------------------------------------------------------|
E|---------------------------------------------------------|
Outros vídeos desta música
162 exibições
    • ½ Tom
    • A
    • Bb
    • B
    • C
    • Db
    • D
    • Eb
    • E
    • F
    • F#
    • G
    • Ab
  • Adicionar à lista

Afinação da cifra

Afinador online

    0 comentários

    Ver todos os comentários

    Entre para o Cifra Club PRO

    Tenha acesso a benefícios exclusivos no App e no Site

    • Chega de anúncios

    • Mais recursos no app do Afinador

    • Atendimento Prioritário

    • Aumente seu limite de lista

    • Ajude a produzir mais conteúdo

    Cifra Club Pro

    Aproveite o Cifra Club com benefícios exclusivos e sem anúncios
    Cifra Club Pro
    Aproveite o Cifra Club com benefícios exclusivos e sem anúncios
    OK