Cifra Club

Como eu te amo (part. Isaías Saad)

Central 3

Cifra: Principal (violão e guitarra)
Selo Cifra Club: esta cifra foi revisada para atender aos critérios oficiais da nossa Equipe de Qualidade.
tom: E (forma dos acordes no tom de C) Capotraste na 4ª casa
[Intro] C  F9  Am7  F

Parte 1 de 4
   C
E|--------------------------0---------------|
B|-0h1------1-------3-----------1-----------|
G|-------0------0-------0-------0-----------|
D|------------------------------------------|
A|-3---3---3--3---3---3---3---3-------------|
E|------------------------------------------|

Parte 2 de 4
   F9
E|-5------5-------5-------5-----------------|
B|------1---1---1---1---1---1---------------|
G|----0-------0-------0-------0-------------|
D|-3----------------------------------------|
A|------------------------------------------|
E|------------------------------------------|

Parte 3 de 4
   Am7
E|--------------------------0---------------|
B|-0h1------1-------3-----------1-----------|
G|-------0------0-------0-------0-----------|
D|------------------------------------------|
A|-0---0---0--0---0---0---0---0-------------|
E|------------------------------------------|

Parte 4 de 4
   F
E|------------------------------------------|
B|-1----1-0-1-------------------------------|
G|-0h2------0-------------------------------|
D|-3--------0h2-----------------------------|
A|----------3-------------------------------|
E|------------------------------------------|

[Primeira Parte]

 C9          F
Tu és meu Pai
     Am   G     F
Tua voz ecoa em mim
C9        G4          F
Eu não vou sair daqui
Am  G        F7M
Esse é o meu lugar

[Primeira Parte]

 C9          F
Tu és meu Pai
     Am   G     F
Tua voz ecoa em mim
C9        G4          F7M
Eu não vou sair daqui
Am  G        F
Esse é o meu lugar

[Pré-Refrão]

      G           Am          F
Entreguei meu coração pra cumprir
         G         Am         F
Os seus planos e desejos até o fim

[Refrão]

      C9                F  F9
Eu te amo, como eu te amo
     Am
És a fonte que não seca
  G                   F
O rio que transborda em mim

C9                F  F9
Eu te amo, como eu te amo
     Am
És a fonte que não seca
  G                   F
O rio que transborda em mim

[Segunda Parte]

      Am
És a vida
    G
O começo
    F
E o fim
     Am
És a vida
    G
O começo
    F
E o fim
     Am        G      F
És a âncora em meio ao caos
     Am
És a fonte que não seca
  G                   F7M
O rio que transborda em mim
 Am        G      F
És a âncora em meio ao caos
     Am
És a fonte que não seca
  G                   F7M
O rio que transborda em mim

[Refrão]

      C9                F  F9
Eu te amo, como eu te amo
     Am
És a fonte que não seca
  G                   F
O rio que transborda em mim

C9                F  F9
Eu te amo, como eu te amo
     Am
És a fonte que não seca
  G                   F
O rio que transborda em mim
Outros vídeos desta música
19.509 exibições
    • ½ Tom
    • A
    • Bb
    • B
    • C
    • Db
    • D
    • Eb
    • E
    • F
    • F#
    • G
    • Ab
  • Adicionar à lista

Afinação da cifra

Afinador online

    0 comentários

    Ver todos os comentários

    Entre para o Cifra Club PRO

    Tenha acesso a benefícios exclusivos no App e no Site

    • Chega de anúncios

    • Mais recursos no app do Afinador

    • Atendimento Prioritário

    • Aumente seu limite de lista

    • Ajude a produzir mais conteúdo

    Cifra Club Pro

    Aproveite o Cifra Club com benefícios exclusivos e sem anúncios
    Cifra Club Pro
    Aproveite o Cifra Club com benefícios exclusivos e sem anúncios
    OK