Cifra Club

Aint Nobody

Chaka Khan

Cifra: Principal (violão e guitarra)
Selo Cifra Club: esta cifra foi revisada para atender aos critérios oficiais da nossa Equipe de Qualidade.
tom: F
E|---------------------------------h12--h13--h15--------------------------------|
B|----------------------------h9-----------------------------------------------|
G|------------------------h10---------------------------------------------------|
D|---------------h5--h12--------------------------------------------------------|
A|------h7--h10-----------------------------------------------------------------|
E|--h5--------------------------------------------------------------------------|

E|---------------------------------h12--h13--h15--------------------------------|
B|----------------------------h9-----------------------------------------------|
G|------------------------h10---------------------------------------------------|
D|---------------h5--h12--------------------------------------------------------|
A|------h7--h10-----------------------------------------------------------------|
E|--h5--------------------------------------------------------------------------|

E|---------------------------------h12--h13--h15--------------------------------|
B|----------------------------h9-----------------------------------------------|
G|------------------------h10---------------------------------------------------|
D|---------------h5--h12--------------------------------------------------------|
A|------h7--h10-----------------------------------------------------------------|
E|--h5--------------------------------------------------------------------------|

E|---------------------------------h12--h13--h15--------------------------------|
B|----------------------------h9-----------------------------------------------|
G|------------------------h10---------------------------------------------------|
D|---------------h5--h12--------------------------------------------------------|
A|------h7--h10-----------------------------------------------------------------|
E|--h5--------------------------------------------------------------------------|

E|---------------------------------h12--h13--h15--8-0-8--8----------10--10------|
B|----------------------------h9------------------------------------------11---|
G|------------------------h10-------------------------------12----------------10|
D|---------------h5--h12----------------------------------------12--------------|
A|------h7--h10-----------------------------------------------------------------|
E|--h5--------------------------------------------------------------------------|
Outros vídeos desta música
    27 exibições
      • ½ Tom
      • A
      • Bb
      • B
      • C
      • Db
      • D
      • Eb
      • E
      • F
      • F#
      • G
      • Ab
    • Adicionar à lista

    Afinação da cifra

    Afinador online

      0 comentários

      Ver todos os comentários

      Entre para o Cifra Club PRO

      Tenha acesso a benefícios exclusivos no App e no Site

      • Chega de anúncios

      • Mais recursos no app do Afinador

      • Atendimento Prioritário

      • Aumente seu limite de lista

      • Ajude a produzir mais conteúdo

      Cifra Club Pro

      Aproveite o Cifra Club com benefícios exclusivos e sem anúncios
      Cifra Club Pro
      Aproveite o Cifra Club com benefícios exclusivos e sem anúncios
      OK