Cifra Club

Que Bonita A Sua Roupa

Chaves (El Chavo Del Ocho)

Cifra: Principal (violão e guitarra)
Selo Cifra Club: esta cifra foi revisada para atender aos critérios oficiais da nossa Equipe de Qualidade.
tom: E
[Tab - Intro]

E|--------------------------------------------------------------------------------|
B|-----------------------------------------------------------------3-3-3----------|
G|-----------2-4-4-----------4-5-5-2-4-5-5-4-2-2-------------2-----------4-2-4----|
D|-5-2-5-2-5-------5-2-5-2-5---------------------5-5-2-5-2-5---5-2-------------5--|
A|--------------------------------------------------------------------------------|
E|--------------------------------------------------------------------------------|

E|--12-11-10-9~-----------------9~------------------------------------------------|
B|---------------7-9-10~--10-12-----12-9-12-9~------------------------------------|
G|--------------------------------------------------------------------------------|
D|--------------------------------------------------------------------------------|
A|--------------------------------------------------------------------------------|
E|--------------------------------------------------------------------------------|

                 E     C#7
Que bonita sua roupa
                   F#m   A
Que roupinha muito louca
                   E   C#7
Nela é tudo remendado
                  F#m    B7
Não vale nem um centavo
                  E
Mas agrada a quem olhar

           G#   C#m
Eu sou o famoso Chaves
       G#                         C#m
Todos dizem que minha roupa é remendada
        G#      C#m
Faço tremer as bases
        F#m                   B7       (A,A#, B) A#, B)
Com as minhas peraltices preparadas
                 E   C#7
Que bonita a sua roupa
                     F#m    A
Que roupinha muitcho louca
                 E  (B,C) C#7
Nela é tudo remendado
                 F#m   B7
Não vale nenhum centavo
                   E
Mas agrada a quem olhar!

        G#      C#m
Dizem a todo instante
           G#                  C#m
Que ele é mais espaçoso que um trem
           G#     C#m
Que ela é azucrinante
          F#m                   B7
E que tão chata como ela não há ninguém!
                E   C#7
Que bonita a sua roupa
                     F#m    A
Que roupinha muitcho louca
                 E  (B,C) C#7
Nela é tudo remendado
                 F#m   B7
Não vale nenhum centavo
                   E
Mas agrada a quem olhar!

        G#     C#m
O Professor visita
    G#                C#m
A vila procurando casamento
           G#         C#m
E o Seu Madruga não evita
   F#m                   B7
Levar um tabefe a todo momento!

                E   C#7
Que bonita a sua roupa
                     F#m    A
Que roupinha muitcho louca
                 E  (B,C) C#7
Nela é tudo remendado
                 F#m   B7
Não vale nenhum centavo
                   E
Mas agrada a quem olhar!

       G#      C#m
A Pópis é muito boba
         G#                     C#m
Pra Dona Clotilde só falta uma vassoura
          G#    C#m
O Nhonho não se manca
        F#m                    B7
Do Seu Barriga leva sempre uma bronca!
                E   C#7
Que bonita a sua roupa
                     F#m    A
Que roupinha muitcho louca
                 E   B  C  C#7
Nela é tudo remendado
                 F#m   B7
Não vale nenhum centavo
                   E
Mas agrada a quem olhar!
Mas agrada a quem olhar!
Mas agrada a quem olhar!
Outros vídeos desta música
    227.896 exibições
    • Simplificar cifra
      • ½ Tom
      • A
      • Bb
      • B
      • C
      • Db
      • D
      • Eb
      • E
      • F
      • F#
      • G
      • Ab
    • Adicionar à lista

    Afinação da cifra

    Afinador online

      0 comentários

      Ver todos os comentários

      Entre para o Cifra Club PRO

      Tenha acesso a benefícios exclusivos no App e no Site

      • Chega de anúncios

      • Mais recursos no app do Afinador

      • Atendimento Prioritário

      • Aumente seu limite de lista

      • Ajude a produzir mais conteúdo

      Cifra Club Pro

      Aproveite o Cifra Club com benefícios exclusivos e sem anúncios
      Cifra Club Pro
      Aproveite o Cifra Club com benefícios exclusivos e sem anúncios
      OK