Cifra Club

Aprenda

Jardim de Infância

Chris Durán

Cifra: Principal (violão e guitarra)
Quer fazer aulas de música com a gente? Responda essas perguntas
e nos ajude nesse projeto! →
tom: C
E|-----4~----------4-----9-9--------9/11-----13--9---4--2--1-----|
B|----------6------------------6------------------------------4--|
G|---------------------------------------------------------------|
D|---------------------------------------------------------------|
A|---------------------------------------------------------------|
E|---------------------------------------------------------------|

Intro: C  Am  F  Dm

    C           Am            F
Os teus altares vão se enchendo de jasmim
     C          Am      F
Ao procurar intimidade com Jesus
           Dm                            C
Em todo o tempo ouço a sua voz, dizendo vem a mim
          Dm                             C
Nao vejo outro caminho a seguir, já escolhi

       F              Dm
E Ele chama minha atenção
         F          Dm          Fm
E me convida a conhecer Seu coração

             F                      C
Deixa-me brincar no Teu jardim de infância
 Am    G        F   G           C
Percorrendo as dádivas do Teu amor
 Am     G   F              G         Am
Vem me revelar os Teus brinquedos separados
      Dm             Fm          G
Para todos os que desejam ser criança

  Am  G       F                     C
Deixa-me brincar no Teu jardim de infância
 Am    G        F   G           C
Percorrendo as dádivas do Teu amor
       Am   G   F         G        Am
Ao Lhe reverenciar revelarás Tua palavra
        Dm                  G         C
E os mistérios que aos teu filhos desejar

Solo 1: C  Am  F  Dm

E|-----------------9------|-----------9--------------|-7--11--9--7--6--9--14--13--11--9--6~-|
B|----6--6--7--6------6--7|--6--7--6-----6--7--6--7~-|--------------------------------------|
G|------------------------|--------------------------|--------------------------------------|
D|------------------------|--------------------------|--------------------------------------|
A|------------------------|--------------------------|--------------------------------------|
E|------------------------|--------------------------|--------------------------------------|

E|-----------------9------|-----------9--------------|-7--11--9--7--6-------|
B|----6--6--7--6------6--7|--6--7--6-----6--7--6--7~-|----------------------|
G|------------------------|--------------------------|----------------------|
D|------------------------|--------------------------|----------------------|
A|------------------------|--------------------------|----------------------|
E|------------------------|--------------------------|----------------------|

Solo 2: Am  A#  F  C

           G              F
Eu vou correr, vou me lançar
         G           Am
Vou procurar e Te achar
     G          F                G         A
Teu rosto para sempre gravar na minha memória

             G                      D
Deixa-me brincar no Teu jardim de infância
 Bm    A        G   A           D
Percorrendo as dádivas do Teu amor
 Bm     A   G              A         Bm
Vem me revelar os Teus brinquedos separados
      Em             Gm          A
Para todos os que desejam ser criança

  Bm  A       G                     D
Deixa-me brincar no Teu jardim de infância
 Bm    A        G   A           D
Percorrendo as dádivas do Teu amor
       Bm   A   G         A        Bm
Ao Lhe reverenciar revelarás Tua palavra
        Em                  A         D
E os mistérios que aos teu filhos desejar
Compositor não encontrado.
Colaboração e revisão:
  • Raimysson Henrique
  • Matheus
11.915 exibições
    • ½ Tom
    • A
    • Bb
    • B
    • C
    • Db
    • D
    • Eb
    • E
    • F
    • F#
    • G
    • Ab
  • Adicionar à lista

    0 comentários

    Ver todos os comentários
    00:00 / 00:00
    Outros vídeos desta música
    Repetir Qualidade Automático
    Outros vídeos desta música
    00:00 / 00:00
    Automático

    Cifra Club Pro

    Aproveite o Cifra Club com benefícios exclusivos e sem anúncios
    Cifra Club Pro
    Aproveite o Cifra Club com benefícios exclusivos e sem anúncios
    OK