Enviar cifraEntrar

Único Caminho

Chris Durán

Cifra: Principal
exibições 163.938
Tom: B

 Intro: B  G#m  F#  E
E|-------------|-------------------------------------|
B|-------------|-------------------------------------|
G|-------------|---------------------------------1---|
D|-----11/13---|-6---------------------------4---2---|
A|-------------|-6------6--6--6--7--6--4--6--4---2---|
E|-------------|-4--4-4--4---4--4--4--4--4---2---0---|


B
A minha vida te entreguei
G#m
Eu preciso só de Ti
F#                              E
Se te procuro sei que vou te achar
B
Em tempos de aflição eu sei
G#m
Primeiro a Ti eu vou buscar
F#                             E
Eu nada sou sem Ti, o meu Senhor

B   F#      G#m
Jesus, eu sei
           E
És o único caminho pra mim
B   F#     G#m
Jesus, eu sei
           E
És o único caminho pra mim


 Interlúdio: G#m  E  G#m  E
E|--------------------------------------------------|
B|--------------------------------------------------|
G|--------------------------------------------------|
D|-11/13--13-11/13--13-11/13--13-11/13-14-13-11-13--|   (2x)
A|--------------------------------------------------|
E|--------------------------------------------------|


B
Tu estas sempre a cuidar
G#m
Em todo tempo e lugar
F#                                E
Tua graça vem, transborda o meu ser
B
Nunca mudas meu Senhor
G#m
Ontem, hoje o mesmo amor
F#                                E
Pra sempre e sempre até não ter fim

 B   F#      G#m
Jesus, eu sei
           E
És o único caminho pra mim
 B   F#     G#m
Jesus, eu sei
           E
És o único caminho pra mim

B             F#
Vida, Caminho, Verdade és
    G#m       E           G#m
Eu vivo pela fé em Ti, Senhor          (2x)
    F#          E (na última frase não se executa este E; passe para o riff abaixo)
Eu vivo só pra Ti

                                                B
E|---------------------------------------------------|
B|---------------------------------------------------|
G|---------------------------------------------------|
D|---------------------------------------------9-9-9-|
A|--4/6----6/8----8/9-9/11----11/13-----13\9---9-9-9-|
E|--2/4-4x-4/6-6x-6/7-7/9--9x--9/11-11x-11\7---7-7-7-|


 B   F#      G#m
Jesus, eu sei                        (3x)
           E
És o único caminho pra mim

B   F#     G#m
Jesus, eu sei
                 A    A    B
És o Único Caminho pra mim

Final: B  F#  G#m  E
  • 1
  • 2
  • 3
  • 4
  • 5
  • 6
  • 7
  • 8
  • 9
  • 10
  • 11
  • 12
    Acordes para:

      0 comentários

        mostrar mais comentários

        Conseguiu tocar?

        12tocaram0ainda não

        Grave um vídeo tocando Único Caminho e mande pra gente!

        00:00 / 00:00
        outros vídeos desta música
        repetirqualidadeautomática
        • automática
        Outro vídeos desta música
          00:00 / 00:00
          automática
          • automática
          Acordes para:violão e guitarra
          dificuldadeexibiçõescontribuições
          2 versões de Guitar Proformatodownloadscontribuição
          1 versão de Partiturasformatodownloadscontribuição
          fecharplay/pause subir/descer velocidade
            acordes
            fechar
            OK
            Feedback