Cifra Club

Aprenda

As Much As I Ever Could

City And Colour

Cifra: Principal (violão e guitarra)
Tom: G
Afinação: Drop D

Verso1: 4 inteiro, o 5º termina no  *     --->                *
|--------------7-------------------0~-----------------------------0-----------|
|--------------8-------------------0~----------------------------0-0---0------|
|--------------9---------------5---5~-(---5-7p5-)-------------2------2---2-1~-|
|------(9h10)-10-----------7-----7----(5h7-----7)-------------x------2---2-2~-|
|----7---------7------7--7---7--------------------5h7-5p3-5p3-3------2---2-2~-|
|-s7-----------7--s6--6---------------------------3-3-3-3-3-3-3---------------|

Ref: x2
|-0---------0-------0------------------------------|
|-1--1s2s5--3----3--1-----1------------------------|
|-0--0~-----4-4h5---2--0h2--2p0--(0h2p0--------)---|
|-2---------5-------3------------(------2-0h2p0)---|
|-3---------5-------3------------(-------------)---|
|--------------------------------------------------|

Verso 1 2x
"loooost at seeaa......"

refrão 4x
"bring me your love tooonight.." 

segundo verso (bem dificil de ouvir como ele faz, mas eu acho que é assim)  4x
"no i am not, where i belong. So shine a light and guide me home"
|---------------------------------------------|
|---------------------------------------------|
|-4-------4-------5---------------------------|
|-5---5-----5-----7--------7------2----2------|
|-5--5---5-----5--7----7-----7----3------3-0--|
|-5---------------7--7---7-----7--3--3-----3--|

verso 1 mais uma vez
"hooooooohoooo, hooooooooohoooooooooooo!"
Colaboração e revisão:
  • Rafael Neves
8.398 exibições
    • ½ Tom
    • A
    • Bb
    • B
    • C
    • Db
    • D
    • Eb
    • E
    • F
    • F#
    • G
    • Ab
  • Adicionar à lista

    0 comentários

    Mostrar mais comentários

    Conseguiu tocar?

    1 Tocaram 0 Ainda não

    Grave um vídeo tocando As Much As I Ever Could e mande pra gente!

    00:00 / 00:00
    outros vídeos desta música
    repetir qualidade Automático
    Outros vídeos desta música
    00:00 / 00:00
    Automático
    OK