Cifra Club

Harder Than Stone

City And Colour

Cifra (violão e guitarra)
Selo Cifra Club: esta cifra foi revisada para atender aos critérios oficiais da nossa Equipe de Qualidade.
tom: G
E|0h2--2p0------------------------------------------|
B|---0-----0h1------1h3p1p0---1p0-------------------|
G|------------0-------------0-----0--2------------0-|
D|0--------------0----------2--------0--------0h2---|
A|--------------------------------------------------|
E|--------------------------------------------------|

E|0h2---0h2s5---------------------------------------|
B|------------0h1---1h3s5---------3-----------------|
G|----0----------0-------------0--0---2-------------|
D|0-----------0--------------0--------0-------------|
A|--------------------------------------------------|
E|--------------------------------------------------|
Outros vídeos desta música
    10 exibições
      • ½ Tom
      • A
      • Bb
      • B
      • C
      • Db
      • D
      • Eb
      • E
      • F
      • F#
      • G
      • Ab
    • Adicionar à lista

    Afinação da cifra

    Afinador online

      0 comentários

      Ver todos os comentários

      Conseguiu tocar?

      0Tocaram0Ainda não

      Grave um vídeo tocando Harder Than Stone e nos envie!

      Toque também

      1. Imagem do artista AlexisonfireSans Soleil Alexisonfire
      2. Imagem do artista You+MeLove Gone Wrong You+Me
      3. Imagem do artista William FitzsimmonsI Kissed a Girl William Fitzsimmons
      4. Imagem do artista The Spill CanvasSelf Conclusion The Spill Canvas

      Entre para o Cifra Club PRO

      Tenha acesso a benefícios exclusivos no App e no Site

      • Chega de anúncios

      • Badges exclusivas

      • Mais recursos no app do Afinador

      • Atendimento Prioritário

      • Aumente seu limite de lista

      • Ajude a produzir mais conteúdo

      Cifra Club Pro

      Aproveite o Cifra Club com benefícios exclusivos e sem anúncios
      Cifra Club Pro
      Aproveite o Cifra Club com benefícios exclusivos e sem anúncios
      Ops (: Contenido disponible sólo en portugués.
      OK