Cifra Club

This Side Of Paradise

Coyote Theory

Cifra: Principal (violão e guitarra)
Selo Cifra Club: esta cifra foi revisada para atender aos critérios oficiais da nossa Equipe de Qualidade.
tom: A
[Tab]

E|------------4--------------4----------------------|
B|------5--------5-----5--------5-------------------|
G|--------------------------------------------------|
D|---7-----7--------7-----7-------------------------|
A|--------------------------------------------------|
E|--------------------------------------------------|

E|-------------------------4--------------4---------|
B|-------5-----5-----5--------5-----5--------5------|
G|--------------------------------------------------|
D|----7-----7-----7-----7--------7-----7------------|
A|--------------------------------------------------|
E|--------------------------------------------------|

E|------------9--------------9----------------------|
B|------10--------10-----10--------10---------------|
G|--------------------------------------------------|
D|---12-----12--------12-----12---------------------|
A|--------------------------------------------------|
E|--------------------------------------------------|

E|-------------------------9----------------9-------|
B|-------10-----10-----10--------10-----10------10--|
G|--------------------------------------------------|
D|----12-----12-----12-----12--------12-------12----|
A|--------------------------------------------------|
E|--------------------------------------------------|

[Primeira Parte]

A                                   D
Ask me why my heart's inside my throat
A                                    D
I've never been in love, I've been alone
A                                    D
Feel like I've been living life asleep
A                                       D
Love so strong it makes me feel so weak

[Refrão]

(Are you lonely?)
A                D
Our fingers dancing when they meet
          A
You seem so lonely
(Are you lonely?)
             D
I'll be the only dream you seek
    Bm                          C#m
So if you're lonely, no need to show me
   A     Bm         A       E
If you're lonely come be lonely with me

[Refrão]

A
Lonely (are you lonely?)
             D
Passion is crashing as we speak
           A
You seem so lonely
(Are you lonely?)
              D
You're the ground my feet won't reach
      Bm                         A
So if you're lonely, Darling you're glowing
   Bm                     E
If you're lonely come be lonely with me

[Ponte]

A                                  D
Underneath the pale moonlight
     A                          D
Dreaming of a circus life
     A                          D
Carousels and ferris heights
A                                D
I'll be yours if you'll be mine

  Bm                C#m
Cause I'm lonely, I'm so lonely
  A             Bm            E
If you hold me, I'll be your only
A
(Are you lonely?)
              D
Our fingers dancing when they meet
               A
You seem so lonely
(Are you lonely?)
             A
I'll be the only dream you seek
     Bm               C#m
So if you're lonely, no need to show me
    A              Bm            A
If you're lonely, come be lonely with me


E|--------------------------------------------------|
B|-----------5------------5-----7--5----------------|
G|---------------------------6----------------------|
D|--7--6--7-----7--6--7-----------------------------|
A|--------------------------------------------------|
E|--------------------------------------------------|

E|--------4--4--5--5--7--5--4-----------------------|
B|--5--7------------------------7--5----------------|
G|--------------------------------------------------|
D|--------------------------------------------------|
A|--------------------------------------------------|
E|--------------------------------------------------|

E|-------5--7--9--12--14--17--14--12--10--12--10--9-|
B|-5--7---------------------------------------------|
G|--------------------------------------------------|
D|--------------------------------------------------|
A|--------------------------------------------------|
E|--------------------------------------------------|

A
Are you lonely?
             D
Passion is crashing as we speak
           A
You seem so lonely
(Are you lonely?)
              D
You're the ground my feet won't reach
      Bm                         A
So if you're lonely, darling you're glowing
   Bm                     E
If you're lonely come be lonely with me
Outros vídeos desta música
    50.262 exibições
      • ½ Tom
      • A
      • Bb
      • B
      • C
      • Db
      • D
      • Eb
      • E
      • F
      • F#
      • G
      • Ab
    • Adicionar à lista

    Afinação da cifra

    Afinador online

      0 comentários

      Ver todos os comentários

      Conseguiu tocar?

      44Tocaram2Ainda não

      Grave um vídeo tocando This Side Of Paradise e nos envie!

      Toque também

      1. Imagem do artista Imagine DragonsDemons Imagine Dragons
      2. Imagem do artista Imagine DragonsBeliever Imagine Dragons
      3. Imagem do artista Imagine DragonsRadioactive Imagine Dragons
      4. Imagem do artista Imagine DragonsBones Imagine Dragons

      Entre para o Cifra Club PRO

      Tenha acesso a benefícios exclusivos no App e no Site

      • Chega de anúncios

      • Badges exclusivas

      • Mais recursos no app do Afinador

      • Atendimento Prioritário

      • Aumente seu limite de lista

      • Ajude a produzir mais conteúdo

      Cifra Club Pro

      Aproveite o Cifra Club com benefícios exclusivos e sem anúncios
      Cifra Club Pro
      Aproveite o Cifra Club com benefícios exclusivos e sem anúncios
      Ops (: Contenido disponible sólo en portugués.
      OK