Cifra Club

Masque Of The Red Death

Crimson Glory

Cifra: Principal (violão e guitarra)
Selo Cifra Club: esta cifra foi revisada para atender aos critérios oficiais da nossa Equipe de Qualidade.
tom: Bm
(A)     [Intro 1]

      E   S S S S E  S S S S E  S S    E  S S S S E  S S S S E  S S
D#||--------------------------------|-------------------------------|
A#||--------------------------------|-------------------------------|
F#||--7-----------7----------7------|--8----------8----------8------|
C#||--7-----------7----------7------|--8----------8----------8------|
G#||------5-5-5-5----5-5-5-5----5-5-|-----5-5-5-5----5-5-5-5----5-5-|
D#||--------------------------------|-------------------------------|
   |      Q                H.              Q.         Q.         Q  |
D#||--------------------------------|-------------------------------|
A#||--------------------------------|-------------------------------|
F#||--7\----------------------------|--8----------8----------8------|
C#||--7\----------------------------|--8----------8----------8------|
G#||--5\----------------------------|--6----------6----------6------|
D#||--------------------------------|-------------------------------|

      E   S S S S E  S S S S E  S S    E  S S S S Q   E    E    E
D#||--------------------------------|-------------------------------|
A#||--------------------------------|-------------------------------|
F#||--5-----------5----------5------|--8----------8---5----7----8---|
C#||--5-----------5----------5------|--8----------8-----------------|
G#||------5-5-5-5----5-5-5-5----5-5-|-----5-5-5-5-------------------|
D#||--------------------------------|-------------------------------|
   |   Q                H.             Q.         Q   E    E    E
D#||--------------------------------|-------------------------------|
A#||--------------------------------|-------------------------------|
F#||--7\----------------------------|--8----------8\--5----7----8---|
C#||--7\----------------------------|--8----------8\----------------|
G#||--5\----------------------------|--6----------6\----------------|
D#||--------------------------------|-------------------------------|

      E   S S S S E  S S S S E  S S    E  S S S S E  S S S S E  S S
D#||--------------------------------|-------------------------------|
A#||--------------------------------|-------------------------------|
F#||--7-----------7----------7------|--8----------8----------8------|
C#||--7-----------7----------7------|--8----------8----------8------|
G#||------5-5-5-5----5-5-5-5----5-5-|-----5-5-5-5----5-5-5-5----5-5-|
D#||--------------------------------|-------------------------------|
   |  E   S S S S E  S S S S E  S S    E  S S S S E  S S S S E  S S |
D#||--------------------------------|-------------------------------|
A#||--------------------------------|-------------------------------|
F#||--7-----------7----------7------|--8----------8----------8------|
C#||--7-----------7----------7------|--8----------8----------8------|
G#||------5-5-5-5----5-5-5-5----5-5-|-----5-5-5-5----5-5-5-5----5-5-|
D#||--------------------------------|-------------------------------|

      E   S S S S E  S S S S E  S S    E  S S S S Q     S S S S S S
D#||--------------------------------|-------------------------------|
A#||--------------------------------|-------------------------------|
F#||--5-----------5----------5------|--8----------8-----5-0-7-0-8-0-|
C#||--5-----------5----------5------|--8----------8-----------------|
G#||------5-5-5-5----5-5-5-5----5-5-|-----5-5-5-5-------------------|
D#||--------------------------------|-------------------------------|

(B)     [Intro 1]               {Guitars 1 & 2 In Unison}
      E   S S S S E  S S S S E  S S    E  S S S S E  S S S S E  S S
D#||--------------------------------|-------------------------------|
A#||--------------------------------|-------------------------------|
F#||--7-----------7----------7------|--8----------8----------8------|
C#||--7-----------7----------7------|--8----------8----------8------|
G#||------5-5-5-5----5-5-5-5----5-5-|-----5-5-5-5----5-5-5-5----5-5-|
D#||--------------------------------|-------------------------------|

      E   S S S S E  S S S S E  S S    E  S S S S Q     S S S S S S
D#||--------------------------------|-------------------------------|
A#||--------------------------------|-------------------------------|
F#||--5-----------5----------5------|--8----------8-----5-0-7-0-8-0-|
C#||--5-----------5----------5------|--8----------8-----------------|
G#||------5-5-5-5----5-5-5-5----5-5-|-----5-5-5-5-------------------|
D#||--------------------------------|-------------------------------|

      E   S S S S E  S S S S E  S S    E  S S S S E  S S S S E  S S
D#||--------------------------------|-------------------------------|
A#||--------------------------------|-------------------------------|
F#||--7-----------7----------7------|--8----------8----------8------|
C#||--7-----------7----------7------|--8----------8----------8------|
G#||------5-5-5-5----5-5-5-5----5-5-|-----5-5-5-5----5-5-5-5----5-5-|
D#||--------------------------------|-------------------------------|
   |    W          (Guitar 3: Jon)      W
D#||--------------------------------|-------------------------------|
A#||--13b---------------------------|--13b--------------------------|
F#||--------------------------------|-------------------------------|
C#||--------------------------------|-------------------------------|
G#||--------------------------------|-------------------------------|
D#||--------------------------------|-------------------------------|

      E   S S S S E  S S S S E  S S    E  S S S S Q     S S S S S S
D#||--------------------------------|-------------------------------|
A#||--------------------------------|-------------------------------|
F#||--5-----------5----------5------|--8----------8-----5-0-7-0-8-0-|
C#||--5-----------5----------5------|--8----------8-----------------|
G#||------5-5-5-5----5-5-5-5----5-5-|-----5-5-5-5-------------------|
D#||--------------------------------|-------------------------------|
   |  H.                     Q         S S S S S S S S S S S S S S S S S S S S S S S S
D#||--------------------------------|--5-1-3-5-1-3-5-1-3-5-1-3-5-1-3-5-1-3-5-1-3-5-1-3-|
A#||--Lpbr-----------------/13------|--------------------------------------------------|
F#||--------------------------------|--------------------------------------------------|
C#||--------------------------------|--------------------------------------------------|
G#||--------------------------------|--------------------------------------------------|
D#||--------------------------------|--------------------------------------------------|
   |                                   S S S S S S S S S S S S S S S S S S S S S S S S
D#||--------------------------------|--------------------------------------------------|
A#||--------------------------------|--5-1-3-5-1-3-5-1-3-5-1-3-5-1-3-5-1-3-5-1-3-5-1-3-|
F#||--------------------------------|--------------------------------------------------|
C#||--------------------------------|--------------------------------------------------|
G#||--------------------------------|--------------------------------------------------|
D#||--------------------------------|--------------------------------------------------|

[C ( Verse 1 ) ]
      Q.     Q.     E  S S    Q.      Q.      Q       Q.     Q.     E  S S    E  S S E  E  E  E  E  E
D#||-----------------------|-----------------------|------------------------|---------------------------|
A#||-----------------------|-----------------------|------------------------|---------------------------|
F#||--9------9-------------|--7------10------------|--9------9--------------|---------------------------|
C#||--7------7-------------|--8------10------------|--7------7--------------|---------------5--8--7--5--|
G#||----------------0--0-0-|-----------------10----|----------------0--0-0--|--0--0-0-4--7--------------|
D#||-----------------------|-----------------------|----------------[-Palm--|--Mute-]-------------------|
      Q.     Q.     E  S S    Q.      Q.      Q       Q.     Q.     E  S S    E  S S E  E  E  E  E  E
D#||-----------------------|-----------------------|------------------------|---------------------------|
A#||-----------------------|-----------------------|------------------------|---------------------------|
F#||--9------9-------------|--7------10------------|--9------9--------------|------------------7--5-----|
C#||--7------7-------------|--8------10------------|--7------7--------------|------------5--8--------8--|
G#||----------------0--0-0-|-----------------10----|----------------0--0-0--|--0--0-0-7-----------------|
D#||-----------------------|-----------------------|----------------[-Palm--|--Mute-]-------------------|
   |  W                    |
D#||-----------------------|
A#||--5--------------------|
F#||-----------------------|
C#||-----------------------|
G#||-----------------------|
D#||-----------------------|
   |  W                    |
D#||--5--------------------|
A#||-----------------------|
F#||-----------------------|
C#||-----------------------|
G#||-----------------------|
D#||-----------------------|

      Q.     Q.     E  S S    Q.      Q.      Q       Q.     Q.     E  S  S     E  S S E  E  S S S S E  E
D#||-----------------------|-----------------------|-------------------------|-----------------------------|
A#||-----------------------|-----------------------|-------------------------|-----------------------------|
F#||--9------9-------------|--7------10------12----|--9------9---------------|-----------------------------|
C#||--7------7-------------|--8------10------10----|--7------7---------------|-----------------------------|
G#||----------------0--0-0-|-----------------------|----------------0--0--0--|--0--0-0-4--5--7-5-4-5-4-----|
D#||-----------------------|-----------------------|-------------------------|---------------------------6-|
   |  Q.     Q.     E  S S    Q.      Q.      Q       Q.     Q.     E  S  S     E  S S E  E  S S S S E E   |
D#||-----------------------|-----------------------|-------------------------|-----------------------------|
A#||-----------------------|-----------------------|-------------------------|-----------------------------|
F#||--9------9-------------|--7------10------12----|--9------9---------------|-----------------------------|
C#||--7------7-------------|--8------10------10----|--7------7---------------|-----------------------------|
G#||----------------0--0-0-|-----------------------|----------------0--0--0--|--0--0-0-4--5--7-5-4-5-4-----|
D#||-----------------------|-----------------------|-------------------------|--------------------------6--|

      Q.     Q.     E  S S    Q.      Q.      Q       Q.     Q.     E  S S    E  S S E  E  E  E  E  E
D#||-----------------------|-----------------------|------------------------|---------------------------|
A#||-----------------------|-----------------------|------------------------|---------------------------|
F#||--9------9-------------|--7------10------------|--9------9--------------|------------------7--5-----|
C#||--7------7-------------|--8------10------------|--7------7--------------|------------5--8--------8--|
G#||----------------0--0-0-|-----------------10----|----------------0--0-0--|--0--0-0-7-----------------|
D#||-----------------------|-----------------------|----------------[-Palm--|--Mute-]-------------------|
      Q.     Q.     E  S S    Q.      Q.      Q       Q.     Q.     E  S S    S S S S S S S S S S S S S S E
D#||-----------------------|-----------------------|------------------------|-------------------------------|
A#||-----------------------|-----------------------|------------------------|-------------------------------|
F#||--9------9-------------|--7------10------12----|--9------9--------------|-------------------------------|
C#||--7------7-------------|--8------10------10----|--7------7--------------|-8-8-7-7-5-5-------------------|
G#||----------------0--0-0-|-----------------------|----------------0--0-0--|-------------8-8-4-5-7-5-4-----|
D#||-----------------------|-----------------------|------------------------|---------------------------6-6-|

[D ( Chorus 1 ) ]
E|-----3-----|
      W     Q.     Q.        Q       W        Q.      Q.     Q       W     H         Q     Q     Q      
D#||-----|------------------------|-----|-------------------------|-----|-----------------------------||
A#||-----|------------------------|-----|-------------------------|-----|-----------------------------||
F#||--7--|--7------9------9g10----|--9--|--9g10------10------9----|--7--|--L--------10----10----10----||
C#||-----|------------------------|-----|-------------------------|-----|-----------------------------||
G#||-----|------------------------|-----|-------------------------|-----|-----------------------------||
D#||-----|------------------------|-----|-------------------------|-----|-----------------------------||
   |  W     Q.     Q.        Q       W        Q.      Q.     Q       W     H         Q     Q     Q    ||
D#||-----|------------------------|-----|-------------------------|-----|-----------------------------||
A#||-----|------------------------|-----|-------------------------|-----|-----------------------------||
F#||--3--|------------------------|-----|-------------------------|-----|-----------------------------||
C#||--5--|------------------------|-----|-------------------------|-----|-----------------------------||
G#||--5--|-------------------5----|-----|-------------------------|-----|-----------------------------||
D#||--3--|--3------5--------------|--5--|-----6-------6------5----|--3--|--L---------6-----6-----6----||
   |  W     Q.     Q.        Q       W        Q.      Q.     Q       W     H         Q     Q     Q    ||
D#||-----|------------------------|-----|-------------------------|-----|-----------10----10----10----||
A#||--8--|--------10--------11----|-----|-11b13------11-----10----|--8--|--L--------------------------||
F#||-----|--9---------------------|-10--|-------------------------|-----|-----------------------------||
C#||-----|------------------------|-----|-------------------------|-----|-----------------------------||
G#||-----|------------------------|-----|-------------------------|-----|-----------------------------||
D#||-----|------------------------|-----|-------------------------|-----|-----------------------------||
   |  W     Q.     Q.        Q       W        Q.      Q.     Q       W     H         Q     Q     Q    ||
D#||-----|------------------------|-----|----13------13-----12----|-10--|--L--------13----13----13----||
A#||-----|------------------------|-----|-------------------------|-----|-----------------------------||
F#||-----|------------------------|-----|-------------------------|-----|-----------------------------||
C#||-----|------------------------|-----|-------------------------|-----|-----------------------------||
G#||-----|------------------------|-----|-------------------------|-----|-----------------------------||
D#||-----|------------------------|-----|-------------------------|-----|-----------------------------||

[E ( Bridge 1 ) ]               {Guitars 1 & 2 In Unison}
      E   S S S S E  S S S S E  S S    E  S S S S E  S S S S E  S S
D#||--------------------------------|-------------------------------|
A#||--------------------------------|-------------------------------|
F#||--7-----------7----------7------|--8----------8----------8------|
C#||--7-----------7----------7------|--8----------8----------8------|
G#||------5-5-5-5----5-5-5-5----5-5-|-----5-5-5-5----5-5-5-5----5-5-|
D#||--------------------------------|-------------------------------|
       Q.          Q     Q.             W                           |
D#||--10----------10----10----------|--10---------------------------|
A#||--------------------------------|-------------------------------|
F#||--------------------------------|-------------------------------|
C#||--------------------------------|-------------------------------|
G#||--------------------------------|-------------------------------|
D#||--------------------------------|-------------------------------|

      E   S S S S E  S S S S E  S S    E  S S S S Q     S S S S S S
D#||--------------------------------|-------------------------------|
A#||--------------------------------|-------------------------------|
F#||--5-----------5----------5------|--8----------8-----5-0-7-0-8-0-|
C#||--5-----------5----------5------|--8----------8-----------------|
G#||------5-5-5-5----5-5-5-5----5-5-|-----5-5-5-5-------------------|
D#||--------------------------------|-------------------------------|

      E   S S S S E  S S S S E  S S    E  S S S S E  S S S S E  S S
D#||--------------------------------|-------------------------------|
A#||--------------------------------|-------------------------------|
F#||--7-----------7----------7------|--8----------8----------8------|
C#||--7-----------7----------7------|--8----------8----------8------|
G#||------5-5-5-5----5-5-5-5----5-5-|-----5-5-5-5----5-5-5-5----5-5-|
D#||--------------------------------|-------------------------------|
   |    W          (Guitar 3: Jon)      W
D#||--------------------------------|-------------------------------|
A#||--13b---------------------------|--13b--------------------------|
F#||--------------------------------|-------------------------------|
C#||--------------------------------|-------------------------------|
G#||--------------------------------|-------------------------------|
D#||--------------------------------|-------------------------------|

      E   S S S S E  S S S S E  S S    E  S S S S Q     S S S S S S
D#||--------------------------------|-------------------------------|
A#||--------------------------------|-------------------------------|
F#||--5-----------5----------5------|--8----------8-----5-0-7-0-8-0-|
C#||--5-----------5----------5------|--8----------8-----------------|
G#||------5-5-5-5----5-5-5-5----5-5-|-----5-5-5-5-------------------|
D#||--------------------------------|-------------------------------|
   |  H.                     Q         S S S S S S S S S S S S S S S S S S S S S S S S
D#||--------------------------------|--5-1-3-5-1-3-5-1-3-5-1-3-5-1-3-5-1-3-5-1-3-5-1-3-|
A#||--Lpbr-----------------/13------|--------------------------------------------------|
F#||--------------------------------|--------------------------------------------------|
C#||--------------------------------|--------------------------------------------------|
G#||--------------------------------|--------------------------------------------------|
D#||--------------------------------|--------------------------------------------------|
   |                                   S S S S S S S S S S S S S S S S S S S S S S S S
D#||--------------------------------|--------------------------------------------------|
A#||--------------------------------|--5-1-3-5-1-3-5-1-3-5-1-3-5-1-3-5-1-3-5-1-3-5-1-3-|
F#||--------------------------------|--------------------------------------------------|
C#||--------------------------------|--------------------------------------------------|
G#||--------------------------------|--------------------------------------------------|
D#||--------------------------------|--------------------------------------------------|

[F ( Verses 2 ) ]
      Q.     Q.     E  S S    Q.      Q.      Q       Q.     Q.     E  S S    E  S S E  E  E  E  E  E
D#||-----------------------|-----------------------|------------------------|---------------------------|
A#||-----------------------|-----------------------|------------------------|---------------------------|
F#||--9------9-------------|--7------10------------|--9------9--------------|---------------------------|
C#||--7------7-------------|--8------10------------|--7------7--------------|---------------5--8--7--5--|
G#||----------------0--0-0-|-----------------10----|----------------0--0-0--|--0--0-0-4--7--------------|
D#||-----------------------|-----------------------|----------------[-Palm--|--Mute-]-------------------|
      Q.     Q.     E  S S    Q.      Q.      Q       Q.     Q.     E  S S    E  S S E  E  E  E  E  E
D#||-----------------------|-----------------------|------------------------|---------------------------|
A#||-----------------------|-----------------------|------------------------|---------------------------|
F#||--9------9-------------|--7------10------------|--9------9--------------|------------------7--5-----|
C#||--7------7-------------|--8------10------------|--7------7--------------|------------5--8--------8--|
G#||----------------0--0-0-|-----------------10----|----------------0--0-0--|--0--0-0-7-----------------|
D#||-----------------------|-----------------------|----------------[-Palm--|--Mute-]-------------------|
   |  W                    |
D#||-----------------------|
A#||--5--------------------|
F#||-----------------------|
C#||-----------------------|
G#||-----------------------|
D#||-----------------------|
   |  W                    |
D#||--5--------------------|
A#||-----------------------|
F#||-----------------------|
C#||-----------------------|
G#||-----------------------|
D#||-----------------------|

      Q.     Q.     E  S S    Q.      Q.      Q       Q.     Q.     E  S  S     E  S S E  E  S S S S E  E
D#||-----------------------|-----------------------|-------------------------|-----------------------------|
A#||-----------------------|-----------------------|-------------------------|-----------------------------|
F#||--9------9-------------|--7------10------12----|--9------9---------------|-----------------------------|
C#||--7------7-------------|--8------10------10----|--7------7---------------|-----------------------------|
G#||----------------0--0-0-|-----------------------|----------------0--0--0--|--0--0-0-4--5--7-5-4-5-4-----|
D#||-----------------------|-----------------------|-------------------------|---------------------------6-|
   |  Q.     Q.     E  S S    Q.      Q.      Q       Q.     Q.     E  S  S     E  S S E  E  S S S S E E   |
D#||-----------------------|-----------------------|-------------------------|-----------------------------|
A#||-----------------------|-----------------------|-------------------------|-----------------------------|
F#||--9------9-------------|--7------10------12----|--9------9---------------|-----------------------------|
C#||--7------7-------------|--8------10------10----|--7------7---------------|-----------------------------|
G#||----------------0--0-0-|-----------------------|----------------0--0--0--|--0--0-0-4--5--7-5-4-5-4-----|
D#||-----------------------|-----------------------|-------------------------|--------------------------6--|

      Q.     Q.     E  S S    Q.      Q.      Q       Q.     Q.     E  S S    E  S S E  E  E  E  E  E
D#||-----------------------|-----------------------|------------------------|---------------------------|
A#||-----------------------|-----------------------|------------------------|---------------------------|
F#||--9------9-------------|--7------10------------|--9------9--------------|------------------7--5-----|
C#||--7------7-------------|--8------10------------|--7------7--------------|------------5--8--------8--|
G#||----------------0--0-0-|-----------------10----|----------------0--0-0--|--0--0-0-7-----------------|
D#||-----------------------|-----------------------|----------------[-Palm--|--Mute-]-------------------|
      Q.     Q.     E  S S    Q.      Q.      Q       Q.     Q.     E  S S    S S S S S S S S S S S S S S E
D#||-----------------------|-----------------------|------------------------|-------------------------------|
A#||-----------------------|-----------------------|------------------------|-------------------------------|
F#||--9------9-------------|--7------10------12----|--9------9--------------|-------------------------------|
C#||--7------7-------------|--8------10------10----|--7------7--------------|-8-8-7-7-5-5-------------------|
G#||----------------0--0-0-|-----------------------|----------------0--0-0--|-------------8-8-4-5-7-5-4-----|
D#||-----------------------|-----------------------|------------------------|---------------------------6-6-|

[G ( Chorus 2 ) ]
E|-----3-----|
      W     Q.     Q.        Q       W        Q.      Q.     Q       W     H         Q     Q     Q      
D#||-----|------------------------|-----|-------------------------|-----|-----------------------------||
A#||-----|------------------------|-----|-------------------------|-----|-----------------------------||
F#||--7--|--7------9------9g10----|--9--|--9g10------10------9----|--7--|--L--------10----10----10----||
C#||-----|------------------------|-----|-------------------------|-----|-----------------------------||
G#||-----|------------------------|-----|-------------------------|-----|-----------------------------||
D#||-----|------------------------|-----|-------------------------|-----|-----------------------------||
   |  W     Q.     Q.        Q       W        Q.      Q.     Q       W     H         Q     Q     Q    ||
D#||-----|------------------------|-----|-------------------------|-----|-----------------------------||
A#||-----|------------------------|-----|-------------------------|-----|-----------------------------||
F#||--3--|------------------------|-----|-------------------------|-----|-----------------------------||
C#||--5--|------------------------|-----|-------------------------|-----|-----------------------------||
G#||--5--|-------------------5----|-----|-------------------------|-----|-----------------------------||
D#||--3--|--3------5--------------|--5--|-----6-------6------5----|--3--|--L---------6-----6-----6----||
   |  W     Q.     Q.        Q       W        Q.      Q.     Q       W     H         Q     Q     Q    ||
D#||-----|------------------------|-----|-------------------------|-----|-----------10----10----10----||
A#||--8--|--------10--------11----|-----|-11b13------11-----10----|--8--|--L--------------------------||
F#||-----|--9---------------------|-10--|-------------------------|-----|-----------------------------||
C#||-----|------------------------|-----|-------------------------|-----|-----------------------------||
G#||-----|------------------------|-----|-------------------------|-----|-----------------------------||
D#||-----|------------------------|-----|-------------------------|-----|-----------------------------||
   |  W     Q.     Q.        Q       W        Q.      Q.     Q       W     H         Q     Q     Q    ||
D#||-----|------------------------|-----|----13------13-----12----|-10--|--L--------13----13----13----||
A#||-----|------------------------|-----|-------------------------|-----|-----------------------------||
F#||-----|------------------------|-----|-------------------------|-----|-----------------------------||
C#||-----|------------------------|-----|-------------------------|-----|-----------------------------||
G#||-----|------------------------|-----|-------------------------|-----|-----------------------------||
D#||-----|------------------------|-----|-------------------------|-----|-----------------------------||
       W                    Q.       Q.      Q     
D#||--------------------|-------------------------|
A#||--10----------------|--11b------11------10----|
F#||--------------------|-------------------------|
C#||--------------------|-------------------------|
G#||--------------------|-------------------------|
D#||---5----------------|---6--------6-------5----|

[H ( Chorus 3 ) ]
      W                   Q.      Q.      Q        W
D#||-------------------|-----------------------|--------------------|
A#||-------------------|-----------------------|--------------------|
F#||-------------------|-----------------------|--------------------|
C#||--5----------------|-----------------------|--------------------|
G#||--5----------------|------------------5----|---7----------------|
D#||--3----------------|--3-------5------------|---5----------------|
   |  W                   Q.      Q.      Q        W                |
D#||-------------------|-----------------------|--------------------|
A#||--8----------------|--5------10------11----|--10----------------|
F#||-------------------|-----------------------|--------------------|
C#||-------------------|-----------------------|--------------------|
G#||-------------------|-----------------------|--------------------|
D#||-------------------|-----------------------|--------------------|
   |  W                   Q.      Q.      Q        W                |
D#||-10----------------|-10------12------12b---|--12----------------|
A#||-------------------|-----------------------|--------------------|
F#||-------------------|-----------------------|--------------------|
C#||-------------------|-----------------------|--------------------|
G#||-------------------|-----------------------|--------------------|
D#||-------------------|-----------------------|--------------------|
   |  W                   Q.      Q.      Q        W                |
D#||-------------------|-----------------------|--------------------|
A#||-------------------|-----------------------|--------------------|
F#||--7----------------|--7-------9------10----|---9----------------|
C#||-------------------|-----------------------|--------------------|
G#||-------------------|-----------------------|--------------------|
D#||-------------------|-----------------------|--------------------|

Gtr 1  Q.       Q.      Q       W                    Q     Q     Q     Q     Q
D#||-------------------------|-------------------|--------------------------------|
A#||-------------------------|-------------------|--------------------------------|
F#||-------------------------|-------------------|--------------------------------|
C#||-------------------------|-------------------|--------------------------------|
G#||-------------------------|-------------------|--------------------------------|
D#||---6--------6-------5----|--3----------------|---L-----------6-----6-----6----|
Gtr 2  Q.       Q.      Q       W                    Q     Q     Q     Q     Q    |
D#||-------------------------|-------------------|--------------------------------|
A#||--11b------11------10----|--8----------------|--11----11----11----11----11----|
F#||-------------------------|-------------------|--------------------------------|
C#||-------------------------|-------------------|--------------------------------|
G#||-------------------------|-------------------|--------------------------------|
D#||-------------------------|-------------------|--------------------------------|
Gtr 3  Q.       Q.      Q       W                    Q     Q     Q     Q     Q    |
D#||--13b------13------12----|-10----------------|--13----13----13----13----13----|
A#||-------------------------|-------------------|--------------------------------|
F#||-------------------------|-------------------|--------------------------------|
C#||-------------------------|-------------------|--------------------------------|
G#||-------------------------|-------------------|--------------------------------|
D#||-------------------------|-------------------|--------------------------------|
Gtr 4  Q.       Q.      Q       W                    Q     Q     Q     Q     Q    |
D#||-------------------------|-------------------|--------------------------------|
A#||-------------------------|-------------------|--------------------------------|
F#||--10b------10-------9----|--7----------------|--10----10----10----10----10----|
C#||-------------------------|-------------------|--------------------------------|
G#||-------------------------|-------------------|--------------------------------|
D#||-------------------------|-------------------|--------------------------------|

[I ( Bridge 2 ) ]
Gtr 1  Q    Q.     Q.        Q.     Q.     Q       Q    Q.     Q.         Q.     Q.     Q     
D#||----------------------|---------------------|---------------------|----------------------|
A#||----------------------|---------------------|---------------------|----------------------|
F#||--------2------3------|--5------3------2----|-------2------3------|--/7------3------5----|
C#||----------------------|---------------------|---------------------|----------------------|
G#||----------------------|---------------------|---------------------|----------------------|
D#||---5------------------|---------------------|---------------------|----------------------|
Gtr 2  W                     W                      W                    W                   |
D#||----------------------|---------------------|---------------------|----------------------|
A#||--10------------------|--L------------------|---8-----------------|--L-------------------|
F#||----------------------|---------------------|---------------------|----------------------|
C#||----------------------|---------------------|---------------------|----------------------|
G#||----------------------|---------------------|---------------------|----------------------|
D#||----------------------|---------------------|---------------------|----------------------|
Gtr 3  W                     W                      W                    W                   |
D#||----------------------|---------------------|---------------------|----------------------|
A#||----------------------|---------------------|---------------------|----------------------|
F#||---9------------------|--L------------------|---9-----------------|--L-------------------|
C#||----------------------|---------------------|---------------------|----------------------|
G#||----------------------|---------------------|---------------------|----------------------|
D#||----------------------|---------------------|---------------------|----------------------|
Gtr 4  W                     W                      W                    W                   |
D#||--12------------------|--L------------------|--10-----------------|--L-------------------|
A#||----------------------|---------------------|---------------------|----------------------|
F#||----------------------|---------------------|---------------------|----------------------|
C#||----------------------|---------------------|---------------------|----------------------|
G#||----------------------|---------------------|---------------------|----------------------|
D#||----------------------|---------------------|---------------------|----------------------|

      Q    Q.      Q.        Q.     Q.     Q       Q    Q.     Q.         Q.     Q.     Q     
D#||----------------------|---------------------|---------------------|----------------------|
A#||----------------------|---------------------|---------------------|----------------------|
F#||-------2-------3------|--5------3------2----|-------2------3------|--/6------5------3----|
C#||----------------------|---------------------|---------------------|----------------------|
G#||----------------------|---------------------|---------------------|----------------------|
D#||----------------------|---------------------|---------------------|----------------------|
Gtr 2  W                     W                      W                    W                   |
D#||----------------------|---------------------|---------------------|----------------------|
A#||--10------------------|--L------------------|---8-----------------|--L-------------------|
F#||----------------------|---------------------|---------------------|----------------------|
C#||----------------------|---------------------|---------------------|----------------------|
G#||----------------------|---------------------|---------------------|----------------------|
D#||----------------------|---------------------|---------------------|----------------------|
Gtr 3  W                     W                      W                    W                   |
D#||----------------------|---------------------|---------------------|----------------------|
A#||----------------------|---------------------|---------------------|----------------------|
F#||---9------------------|--L------------------|---9-----------------|--L-------------------|
C#||----------------------|---------------------|---------------------|----------------------|
G#||----------------------|---------------------|---------------------|----------------------|
D#||----------------------|---------------------|---------------------|----------------------|
Gtr 4  W                     W                      W                    W                   |
D#||--13------------------|--L------------------|--10-----------------|--L-------------------|
A#||----------------------|---------------------|---------------------|----------------------|
F#||----------------------|---------------------|---------------------|----------------------|
C#||----------------------|---------------------|---------------------|----------------------|
G#||----------------------|---------------------|---------------------|----------------------|
D#||----------------------|---------------------|---------------------|----------------------|

[J ( Interlude ) ]
      Q     Q.      Q.         Q.      Q.      Q       Q     Q.      Q.          Q.      Q.      Q     
D#||-----------------------|------------------------|-----------------------|-------------------------|
A#||-------10------11------|--13------11------10----|-------10------11------|--/15------11------13----|
F#||-----------------------|------------------------|-----------------------|-------------------------|
C#||-----------------------|------------------------|-----------------------|-------------------------|
G#||-----------------------|------------------------|-----------------------|-------------------------|
D#||-----------------------|------------------------|-----------------------|-------------------------|
   |  Q     Q.      Q.         Q.      Q.      Q       Q     Q.      Q.          Q.      Q.      Q    |
D#||-----------------------|------------------------|-----------------------|-------------------------|
A#||-----------------------|------------------------|-----------------------|-------------------------|
F#||--------5-------7------|--/9-------7-------5----|--------5-------7------|--/10-------7-------9----|
C#||-----------------------|------------------------|-----------------------|-------------------------|
G#||-----------------------|------------------------|-----------------------|-------------------------|
D#||-----------------------|------------------------|-----------------------|-------------------------|

      Q     Q.      Q.         Q.      Q.      Q       Q     Q.      Q.          Q.      Q.      Q     
D#||-----------------------|------------------------|-----------------------|-------------------------|
A#||-------10------11------|--13------11------10----|-------10------11------|--/18------17------15----|
F#||-----------------------|------------------------|-----------------------|-------------------------|
C#||-----------------------|------------------------|-----------------------|-------------------------|
G#||-----------------------|------------------------|-----------------------|-------------------------|
D#||-----------------------|------------------------|-----------------------|-------------------------|
   |  Q     Q.      Q.         Q.      Q.      Q       Q     Q.      Q.          Q.      Q.      Q    |
D#||-----------------------|------------------------|-----------------------|-------------------------|
A#||-----------------------|------------------------|-----------------------|--/10-------8-------6----|
F#||--------5-------7------|--/9-------7-------5----|--------5-------7------|-------------------------|
C#||-----------------------|------------------------|-----------------------|-------------------------|
G#||-----------------------|------------------------|-----------------------|-------------------------|
D#||-----------------------|------------------------|-----------------------|-------------------------|

      Q     Q.      Q.         Q.      Q.      Q       Q     Q.      Q.          Q.      Q.      Q     
D#||-----------------------|------------------------|-----------------------|-------------------------|
A#||-------10------11------|--13------11------10----|-------10------11------|--/15------14------13----|
F#||-----------------------|------------------------|-----------------------|-------------------------|
C#||-----------------------|------------------------|-----------------------|-------------------------|
G#||-----------------------|------------------------|-----------------------|-------------------------|
D#||-----------------------|------------------------|-----------------------|-------------------------|
   |  Q     Q.      Q.         Q.      Q.      Q       Q     Q.      Q.          Q.      Q.      Q    |
D#||-----------------------|------------------------|-----------------------|-------------------------|
A#||-----------------------|------------------------|-----------------------|-------------------------|
F#||--------5-------7------|--/9-------7-------5----|--------5-------7------|--/10-------7-------9----|
C#||-----------------------|------------------------|-----------------------|-------------------------|
G#||-----------------------|------------------------|-----------------------|-------------------------|
D#||-----------------------|------------------------|-----------------------|-------------------------|
   |  Q     Q.      Q.         Q.      Q.      Q       Q     Q.      Q.          Q.      Q.      Q    |
D#||-----------------------|------------------------|-----------------------|-------------------------|
A#||-------13------15------|-/17------15------13----|-------13------15------|--/18------15------17----|
F#||-----------------------|------------------------|-----------------------|-------------------------|
C#||-----------------------|------------------------|-----------------------|-------------------------|
G#||-----------------------|------------------------|-----------------------|-------------------------|
D#||-----------------------|------------------------|-----------------------|-------------------------|

      Q     Q.      Q.         Q.      Q.      Q       Q     Q.      Q.          Q.      Q.      Q     
D#||-----------------------|------------------------|-----------------------|-------------------------|
A#||-------10------11------|--13------11------10----|-------10------11------|--/18------17------15----|
F#||-----------------------|------------------------|-----------------------|-------------------------|
C#||-----------------------|------------------------|-----------------------|-------------------------|
G#||-----------------------|------------------------|-----------------------|-------------------------|
D#||-----------------------|------------------------|-----------------------|-------------------------|
   |  Q     Q.      Q.         Q.      Q.      Q       Q     Q.      Q.          Q.      Q.      Q    |
D#||-----------------------|------------------------|-----------------------|-------------------------|
A#||-----------------------|------------------------|-----------------------|--/10-------8-------6----|
F#||--------5-------7------|--/9-------7-------5----|--------5-------7------|-------------------------|
C#||-----------------------|------------------------|-----------------------|-------------------------|
G#||-----------------------|------------------------|-----------------------|-------------------------|
D#||-----------------------|------------------------|-----------------------|-------------------------|
   |  Q     Q.      Q.         Q.      Q.      Q       Q     Q.      Q.          Q.      Q.      Q    |
D#||-----------------------|------------------------|-----------------------|-------------------------|
A#||-------13------15------|-/17------15------13----|-------13------15------|--/22------20------18----|
F#||-----------------------|------------------------|-----------------------|-------------------------|
C#||-----------------------|------------------------|-----------------------|-------------------------|
G#||-----------------------|------------------------|-----------------------|-------------------------|
D#||-----------------------|------------------------|-----------------------|-------------------------|

[K ( Guitar Solo ) ]    {Guitars 1 & 2 In Unison / Gtr 3 Takes Solo}    {Solo Transcribed At the End}
      Q.     E  H           Q.     E  H           Q.     E  H           Q.     E  H         
D#||---------------------|---------------------|---------------------|---------------------|
A#||---------------------|---------------------|---------------------|---------------------|
F#||--7------7--L--------|--8------8--L--------|--5------5--L--------|--8------8--L--------|
C#||--7------7--L--------|--8------8--L--------|--5------5--L--------|--8------8--L--------|
G#||--5------5--L--------|--6------6--L--------|--3------3--L--------|--6------6--L--------|
D#||---------------------|---------------------|---------------------|---------------------|

      Q.     E  H           Q.     E  H           Q.     E  H           Q.     Q    E.  E.   
D#||---------------------|---------------------|---------------------|----------------------|
A#||---------------------|---------------------|---------------------|----------------------|
F#||--7------7--L--------|--8------8--L--------|--5------5--L--------|--4------4----8---8---|
C#||--7------7--L--------|--8------8--L--------|--5------5--L--------|--4------4----8---8---|
G#||--5------5--L--------|--6------6--L--------|--3------3--L--------|--2------2----6---6---|
D#||---------------------|---------------------|---------------------|----------------------|

      Q.     E  H           Q.     E  H           Q.     E  H           Q.     Q    E.  E.   
D#||---------------------|---------------------|---------------------|----------------------|
A#||---------------------|---------------------|---------------------|----------------------|
F#||--7------7--L--------|--8------8--L--------|--5------5--L--------|--8------8----8---8---|
C#||--7------7--L--------|--8------8--L--------|--5------5--L--------|--8------8----8---8---|
G#||--5------5--L--------|--6------6--L--------|--3------3--L--------|--6------6----6---6---|
D#||---------------------|---------------------|---------------------|----------------------|

      Q.     E  H           Q.     E  H           Q.     E  H           Q.     Q    E.  E.   
D#||---------------------|---------------------|---------------------|----------------------|
A#||---------------------|---------------------|---------------------|----------------------|
F#||--7------7--L--------|--8------8--L--------|--5------5--L--------|--4------4----8---8---|
C#||--7------7--L--------|--8------8--L--------|--5------5--L--------|--4------4----8---8---|
G#||--5------5--L--------|--6------6--L--------|--3------3--L--------|--2------2----6---6---|
D#||---------------------|---------------------|---------------------|----------------------|

[L ( Verses 3 ) ]

      Q.     Q.     E  S S    Q.      Q.      Q       Q.     Q.     E  S  S     E  S S E  E  E    E  E  E
D#||-----------------------|-----------------------|-------------------------|-----------------------------|
A#||-----------------------|-----------------------|-------------------------|-----------------------------|
F#||--9------9-------------|--7------10------------|--9------9---------------|--------------------7--5-----|
C#||--7------7-------------|--8------10------------|--7------7---------------|------------5--8----------8--|
G#||----------------0--0-0-|-----------------10----|----------------0--0--0--|--0--0-0-7-------------------|
D#||-----------------------|-----------------------|----------------[--Palm--|--Mute-]---------------------|
   |  Q.     Q.     E  S S    Q.      Q.      Q       Q.     Q.     E  S  S     E  S S E  E  E    E  E  E  |
D#||-----------------------|-----------------------|-------------------------|-----------------------------|
A#||-----------------------|-----------------------|-------------------------|-----------------------------|
F#||--9------9-------------|--7------10------------|--9------9---------------|-----------------------------|
C#||--7------7-------------|--8------10------------|--7------7---------------|---------------5----8--7--5--|
G#||----------------0--0-0-|-----------------10----|----------------0--0--0--|--0--0-0-4--7----------------|
D#||-----------------------|-----------------------|----------------[--Palm--|--Mute-]---------------------|

      Q.     Q.     E  S S    Q.      Q.      Q       Q.     Q.     E  S  S     E  S S E  E  S S S S E  E
D#||-----------------------|-----------------------|-------------------------|-----------------------------|
A#||-----------------------|-----------------------|-------------------------|-----------------------------|
F#||--9------9-------------|--7------10------12----|--9------9---------------|-----------------------------|
C#||--7------7-------------|--8-------8------10----|--7------7---------------|-----------------------------|
G#||----------------0--0-0-|-----------------------|----------------0--0--0--|--0--0-0-4--5--7-5-4-5-4-----|
D#||-----------------------|-----------------------|----------------[--Palm--|--Mute-]------------------6--|
   |  Q.     Q.     E  S S    Q.      Q.      Q       Q.     Q.     E  S  S     E  S S E  E  S S S S E  E  |
D#||-----------------------|-----------------------|-------------------------|-----------------------------|
A#||-----------------------|-----------------------|-------------------------|-----------------------------|
F#||--9------9-------------|--7------10------12----|--9------9---------------|-----------------------------|
C#||--7------7-------------|--8-------8------10----|--7------7---------------|-----------------------------|
G#||----------------0--0-0-|-----------------------|----------------0--0--0--|--0--0-0-4--5--7-5-4-5-4-----|
D#||-----------------------|-----------------------|----------------[--Palm--|--Mute-]------------------6--|

      Q.     Q.     E  S S    Q.      Q.      Q       Q.     Q.     E  S  S     E  S  S  E  E  E  E  E  E
D#||-----------------------|-----------------------|-------------------------|-----------------------------|
A#||-----------------------|-----------------------|-------------------------|-----------------------------|
F#||--9------9-------------|--7------10------------|--9------9---------------|-----------------------------|
C#||--7------7-------------|--8------10------------|--7------7---------------|-----------------5--8--7--5--|
G#||----------------0--0-0-|-----------------10----|----------------0--0--0--|--0--0--0--4--7--------------|
D#||-----------------------|-----------------------|----------------[--Palm--|--Mute-]---------------------|
   |  Q.     Q.     E  S S    Q.      Q.      Q       Q.     Q.     E  S  S     E  S S E  E  E    E  E  E  |
D#||-----------------------|-----------------------|-------------------------|-----------------------------|
A#||-----------------------|-----------------------|-------------------------|-----------------------------|
F#||--9------9-------------|--7------10------------|--9------9---------------|-----------------------------|
C#||--7------7-------------|--8------10------------|--7------7---------------|---------------5----8--7--5--|
G#||----------------0--0-0-|-----------------10----|----------------0--0--0--|--0--0-0-4--7----------------|
D#||-----------------------|-----------------------|----------------[--Palm--|--Mute-]---------------------|

      Q.     Q.     E  S S    Q.      Q.      Q       Q.     Q.    E  S  S    S S S S S S S S S S S S S S  E
D#||-----------------------|-----------------------|------------------------|-------------------------------|
A#||-----------------------|-----------------------|------------------------|-----[-Palm-Mute-Entire-Bar-]--|
F#||--9------9-------------|--7------10------12----|--9------9--------------|-------------------------------|
C#||--7------7-------------|--8-------8------10----|--7------7--------------|-8-8-7-7-5-5-------------------|
G#||----------------0--0-0-|-----------------------|---------------0--0--0--|-------------8-8-4-5-7-5-4-----|
D#||-----------------------|-----------------------|---------------[-P.M.-]-|---------------------------6-6-|
   |  Q.     Q.     E  S S    Q.      Q.      Q       Q.     Q.    E  S  S    S S S S S S S S S S S S S S E |
D#||-----------------------|-----------------------|------------------------|-------------------------------|
A#||-----------------------|-----------------------|------------------------|-----[-Palm-Mute-Entire-Bar-]--|
F#||--9------9-------------|--7------10------12----|--9------9--------------|-------------------------------|
C#||--7------7-------------|--8-------8------10----|--7------7--------------|-8-8-7-7-5-5-------------------|
G#||----------------0--0-0-|-----------------------|---------------0--0--0--|-------------8-8-4-5-7-5-4-----|
D#||-----------------------|-----------------------|---------------[-P.M.-]-|---------------------------6-6-|

[M ( Chorus 3 & 4 ) ]
E|-----3-----|
      W     Q.     Q.        Q       W        Q.      Q.     Q       W     H         Q     Q     Q      
D#||-----|------------------------|-----|-------------------------|-----|------------------------------|
A#||-----|------------------------|-----|-------------------------|-----|------------------------------|
F#||--7--|--7------9------9g10----|--9--|--9g10------10------9----|--7--|--L--------10----10----10-----|
C#||-----|------------------------|-----|-------------------------|-----|------------------------------|
G#||-----|------------------------|-----|-------------------------|-----|------------------------------|
D#||-----|------------------------|-----|-------------------------|-----|------------------------------|
   |  W     Q.     Q.        Q       W        Q.      Q.     Q       W     H         Q     Q     Q     |
D#||-----|------------------------|-----|-------------------------|-----|------------------------------|
A#||-----|------------------------|-----|-------------------------|-----|------------------------------|
F#||--3--|------------------------|-----|-------------------------|-----|------------------------------|
C#||--5--|------------------------|-----|-------------------------|-----|------------------------------|
G#||--5--|-------------------5----|-----|-------------------------|-----|------------------------------|
D#||--3--|--3------5--------------|--5--|-----6-------6------5----|--3--|--L---------6-----6-----6-----|
   |  W     Q.     Q.        Q       W        Q.      Q.     Q       W     H         Q     Q     Q     |
D#||-----|------------------------|-----|-------------------------|-----|-----------10----10----10-----|
A#||--8--|--------10--------11----|-----|-11b13------11-----10----|--8--|--L---------------------------|
F#||-----|--9---------------------|-10--|-------------------------|-----|------------------------------|
C#||-----|------------------------|-----|-------------------------|-----|------------------------------|
G#||-----|------------------------|-----|-------------------------|-----|------------------------------|
D#||-----|------------------------|-----|-------------------------|-----|------------------------------|
   |  W     Q.     Q.        Q       W        Q.      Q.     Q       W     H         Q     Q     Q     |
D#||-----|------------------------|-----|----13------13-----12----|-10--|--L--------13----13----13-----|
A#||-----|------------------------|-----|-------------------------|-----|------------------------------|
F#||-----|------------------------|-----|-------------------------|-----|------------------------------|
C#||-----|------------------------|-----|-------------------------|-----|------------------------------|
G#||-----|------------------------|-----|-------------------------|-----|------------------------------|
D#||-----|------------------------|-----|-------------------------|-----|------------------------------|

      W     Q.     Q.        Q       W        Q.      Q.     Q       W        Q.      Q.     Q    
D#||-----|------------------------|-----|-------------------------|-----|-------------------------|
A#||-----|------------------------|-----|-------------------------|-----|-------------------------|
F#||-----|------------------------|-----|-------------------------|-----|-------------------------|
C#||-----|------------------------|--5--|-------------------------|-----|-------------------------|
G#||-----|------------------------|--5--|--------------------5----|--7--|--------------------5----|
D#||--5--|--6------6---------5----|--3--|-----3-------5-----------|--5--|-----3-------5-----------|
   |  W     Q.     Q.        Q       W        Q.      Q.     Q       W        Q.      Q.     Q    |
D#||-----|------------------------|-----|-------------------------|-----|-------------------------|
A#||-10--|--11b---11--------10----|--8--|------------10-----11----|-----|-------------------------|
F#||-----|------------------------|-----|-----9-------------------|--9--|-------------------------|
C#||-----|------------------------|-----|-------------------------|-----|-------------------------|
G#||-----|------------------------|-----|-------------------------|-----|-------------------------|
D#||-----|------------------------|-----|-------------------------|-----|-----6-------6------5----|
   |  W     Q.     Q.        Q       W        Q.      Q.     Q       W        Q      Q      Q     |
D#||-----|--13----13--------12----|-10--|----10------12-----12b---|-10--|----13-----13-----12-----|
A#||-----|------------------------|-----|-------------------------|-----|-------------------------|
F#||--9--|------------------------|-----|-------------------------|-----|-------------------------|
C#||-----|------------------------|-----|-------------------------|-----|-------------------------|
G#||-----|------------------------|-----|-------------------------|-----|-------------------------|
D#||-----|------------------------|-----|-------------------------|-----|-------------------------|
   |  W     Q.     Q.        Q       W        Q.      Q.     Q       W        Q      Q      Q     |
D#||-----|------------------------|-----|-------------------------|-----|-------------------------|
A#||-----|------------------------|-----|-------------------------|-----|-------------------------|
F#||--9--|------------------------|-----|-----7-------9-----10----|--9--|----10-----10------9-----|
C#||-----|------------------------|-----|-------------------------|-----|-------------------------|
G#||-----|------------------------|-----|-------------------------|-----|-------------------------|
D#||-----|------------------------|-----|-------------------------|-----|-------------------------|

      W
D#||-------------------|--------------------------------|
A#||--8----------------|--------------------------------|
F#||-------------------|--------------------------------|
C#||-------------------|--------------------------------|
G#||-------------------|--------------------------------|
D#||-------------------|--------------------------------|
   |  W                   H            Q     Q     Q
D#||-------------------|--------------------------------|
A#||--8----------------|--------------------------------|
F#||-------------------|--------------------------------|
C#||-------------------|--------------------------------|
G#||-------------------|--------------------------------|
D#||--3----------------|--L------------6-----6-----6----|
   |   W                   Q     Q     Q     Q     Q    |
D#||-------------------|--------------------------------|
A#||-------------------|--------------------------------|
F#||---7---------------|--10----10-----9-----9-----9----|
C#||-------------------|--------------------------------|
G#||-------------------|--------------------------------|
D#||-------------------|--------------------------------|
   |   W                   Q     Q     Q     Q     Q    |
D#||--10---------------|--13----13----12----12----12----|
A#||-------------------|--------------------------------|
F#||-------------------|--------------------------------|
C#||-------------------|--------------------------------|
G#||-------------------|--------------------------------|
D#||-------------------|--------------------------------|

[N ( OUTRO ) ]  {Gtrs 1 & 2 In Unison)
      E   S S S S E  S S S S E  S S    E  S S S S E  S S S S E  S S
D#||--------------------------------|-------------------------------|
A#||--------------------------------|-------------------------------|
F#||--7-----------7----------7------|--8----------8----------8------|
C#||--7-----------7----------7------|--8----------8----------8------|
G#||------5-5-5-5----5-5-5-5----5-5-|-----5-5-5-5----5-5-5-5----5-5-|
D#||--------------------------------|-------------------------------|
   |   W                               W                            |
D#||--13----------------------------|--L----------------------------|
A#||--15----------------------------|--L----------------------------|
F#||--10----------------------------|--L----------------------------|
C#||--------------------------------|-------------------------------|
G#||--------------------------------|-------------------------------|
D#||--------------------------------|-------------------------------|

      E   S S S S E  S S S S E  S S    E  S S S S Q     S S S S S S    E.  S E  Q.     Q
D#||--------------------------------|-------------------------------|-----------------------||
A#||--------------------------------|-------------------------------|-----------------------||
F#||--5-----------5----------5------|--8----------8-----5-0-7-0-8-0-|-----------------------||
C#||--5-----------5----------5------|--8----------8-----------------|--7---7-7--7-----------||
G#||------5-5-5-5----5-5-5-5----5-5-|-----5-5-5-5-------------------|--7---7-7--7-----------||
D#||--------------------------------|-------------------------------|--5--------5-----------||
   |  W                                H          E    S S S S  S S |   Q.      Q.     Q    ||
D#||--L-----------------------------|--L----------------------------|--12------12-----------||
A#||--L-----------------------------|--L----------------------------|--13------13-----------||
F#||--L-----------------------------|--L---------------8-0-7-0-12-0-|--14------14-----------||
C#||--------------------------------|-------------------------------|-----------------------||
G#||--------------------------------|-------------------------------|-----------------------||
D#||--------------------------------|-------------------------------|-----------------------||
Outros vídeos desta música
    6 exibições
      • ½ Tom
      • Am
      • Bbm
      • Bm
      • Cm
      • C#m
      • Dm
      • Ebm
      • Em
      • Fm
      • F#m
      • Gm
      • G#m
    • Adicionar à lista

    Afinação da cifra

    Afinador online

      0 comentários

      Ver todos os comentários

      Entre para o Cifra Club PRO

      Tenha acesso a benefícios exclusivos no App e no Site

      • Chega de anúncios

      • Badges exclusivas

      • Mais recursos no app do Afinador

      • Atendimento Prioritário

      • Aumente seu limite de lista

      • Ajude a produzir mais conteúdo

      Cifra Club Pro

      Aproveite o Cifra Club com benefícios exclusivos e sem anúncios
      Cifra Club Pro
      Aproveite o Cifra Club com benefícios exclusivos e sem anúncios
      OK