Cifra Club

Dangerous

David Guetta

Tab de baixo: Principal
[Introdução - piano e efeitos]

[Primeira parte - só teclado,efeitos e voz]

You take me down, spin me around
You got me running all the lights
Don’t make a sound, talk to me now
Let me inside your mind

I don’t know what you’re thinking, sugar, uh
But I just got that feeling, sugar, uh
I can hear the sirens burning
Red lights turning, I can’t turn back now
So hold on tight

[Refrão - voz,efeitos, teclado e bateria]

I don’t know where the lights are taking us
But something in the night is dangerous
And nothing's holding back the two of us
Baby, this is getting serious
Oh, oh, oh-oh, oh, detain the dangerous
Oh, oh, oh-oh, oh

[Segunda parte]

Show me your soul, I gotta know
Bet that you’re beautiful inside
Toes on the glass, car moving fast
Come take the wheel and drive

[Parte 1 de 2]

Don’t know what you’re thinking, sugar, uh...
G|----------------------------------------------|
D|----------------------------------------------|
A|-x-5-7----------------------------------------|
E|----------------------------------------------|
B|-------5-5-x-5-5-3-5--5-3-5--5-5-x-5-5-3-5----|

[Parte 2 de 2]
G|----------------------------------------------|
D|-------------------------------------------2--|
A|-x-5-7----------------------------------------|
E|----------------------------------------------|
B|--------5-5-x-5-5-3-5--5-3-5--5-5--x-5-5-3----|

G|----------------------------------------------|
D|-5-4--2---------------------------------------|
A|----------------------------------------------|
E|----------------------------------------------|
B|--------5-5-x-5-5-3-5--5-3-5--5-5-x-5-5-3-5---|

G|----------------------------------------------|
D|----------------------------------------------|
A|------5-3-------------------------------------|
E|-0-3------------------------------------------|
B|----------------------------------------------|

[Refrão]

I don’t know where the lights are taking us...

[Parte 1 de 2 - 2x]
G|----------------------------------------------|
D|----------------------------------------------|
A|-7----5-3-3--2-0-0-0--5-5---5-7---------------|
E|---0----------------------7-------------------|
B|----------------------------------------------|

[Parte 2 de 2]
G|----------------------------------------------|
D|----------------------------------------------|
A|-7----5-3-3--2-0-0-0--5-5----5-7--3-----------|
E|---0-----------------------7--------5---------|
B|--------------------------------------3-------|

[Terceira parte - só bateria, efeitos e voz]

It’s dangerous, so dangerous
I wanna do it again (come on, baby)
It’s dangerous, so dangerous
I wanna do it again
It’s dangerous, so dangerous
I wanna do it again

[Refrão]

I don’t know where the lights are taking us...
 
[Parte 1 de 2 - 2x]
G|----------------------------------------------|
D|----------------------------------------------|
A|-7----5-3-3--2-0-0-0--5-5---5-7---------------|
E|---0----------------------7-------------------|
B|----------------------------------------------|

[Parte 2 de 2]
G|----------------------------------------------|
D|----------------------------------------------|
A|-7----5-3-3--2-0-0-0--5-5----5-7--3-----------|
E|---0-----------------------7--------5---------|
B|--------------------------------------3-------|
Composição de David Guetta
Colaboração e revisão:
  • Reginaldo Costa
2.581 exibições

0 comentários

Ver todos os comentários

Conseguiu tocar?

1 Tocaram 0 Ainda não

Grave um vídeo tocando Dangerous e nos envie!

00:00 / 00:00
Outros vídeos desta música
Repetir Qualidade Automático
Outros vídeos desta música
00:00 / 00:00
Automático
Capítulos
  • Tocando a música
  • Apresentação / Equipamentos
  • Tab Segunda Parte - Parte 1 de 2
  • Tab Segunda Parte - Parte 2 de 2
  • Dicas Finais
  • Refrão - Parte 1 de 2
  • Refrão - Parte 2 de 2
  • Encerramento

Cifra Club Pro

Aproveite o Cifra Club com benefícios exclusivos e sem anúncios
Cifra Club Pro
Aproveite o Cifra Club com benefícios exclusivos e sem anúncios
OK