Cifra Club

A tu vuelta

Fernando Delgadillo

Cifra: Principal (violão e guitarra)
Selo Cifra Club: esta cifra foi revisada para atender aos critérios oficiais da nossa Equipe de Qualidade.
tom: G
INTRO:
E|-------------| --/3---|---------------/3---|---------------/3---|
B|-----3-------/3--| --/3-|-----3-------/3----/3-|-----3-------/3----/3-|
G|---0------0--| --/0---|---0------0----/0---|---2------2----/2---|
D|-------0----------------|-------0----------------|-------0----------------|
A|------------------------|------------------------|------------------------|
E|-3----------------------|-3----------------------|-2----------------------|
  G                                                 D/F#*


E|-------------| --/3---|---------------/3---|---------------/3---|
B|-----3-------/3--| --/3-|-----1-------/1----/1-|-----1-------/1----/1-|
G|---2------2--| --/2---|---0------0----/0---|---0------2----/2---|
D|-------0----------------|------------------------|-------0----------------|
A|------------------------|-3-----2----------------|-0----------------------|
E|-2----------------------|------------------------|------------------------|
                           C    C/B                 Am7*  D7*

                                                  (inicia intro2)
E|-------------| --/3---|---------------/3---|------------------------|
B|-----3-------/3--| --/3-|-----1-------/1----/1-|-----3----0--h1---0-----|
G|---0------0--| --/0---|---0------2----/2---|---0------------------0-|
D|-------0----------------|-------0----------------|-------0----------------|
A|------------------------|--3---------------------|------------------------|
E|-3----------------------|------------------------|-3----------------------|
  G                         C    D7*                G


E|-------------| --/3---|------------------------|---------------/0---|
B|-----3-------/3--| --/3-|-----3----0--h1--0------|-----3-------/3----/3-|
G|---0------0--| --/0---|---2------------------2-|---2------2----/2---|
D|-------0----------------|-------0----------------|-------0----------------|
A|------------------------|------------------------|------------------------|
E|-3----------------------|-2----------------------|-2----------------------|
  G                        D/F#*                    D/F#*


E|------------------------|------------------------|------------------------|
B|-----1----0-h-1---0-----|-----1------------------|-----3----0-h-1--0------|
G|---0------------------0-|---0------0-h-2--0------|---0-----------------0--|
D|------------------------|-------0-------------0--|-------0----------------|
A|-3-----2----------------|-0----------------------|------------------------|
E|------------------------|------------------------|-3----------------------|
  C    C/B                 Am7*  D7*                G

                                                                hasta la
E|------------------------|------------------------|------------------------|
B|-----1------------------|-----3----0-h-1--0------|-----3----0-h-1--0------|
G|---0------0-h-2--0------|---0-----------------0--|---0-----------------0--|
D|-------0-------------0--|-------0----------------|-------0----------------|
A|-3----------------------|------------------------|------------------------|
E|------------------------|-3----------------------|-3----------------------|
  C     D7*                G                        G

G
fecha siempre hubo un mañana
                D/F#*
y que es lo que hicimos de lo que serían
            C      C/B
nuestros dolientes caminos
    Am7*      D7*     G    C D7*
que esa tarde se dividían


         G
Hacia donde anduvimos sin buscarnos
            D/F#*
que limpios fueron quedando los días
                C       C/B
y el cielo inquieto y nocturno
      Am7*     D7*       G
los sueños que sorprenderían


            C                  D7*
Tu y yo tan lejos de aquellos amantes
            G        D/F#*      Em   Em/D
que a su pesar van borrando los días
           C         C/B      Am7*  D7*
que alguna vez se alejaron distantes
          G           D/F#*  Em   Em/D
para olvidar lo que ya no serían
                 C       C/B       Am7*
Y hoy, que me ha dado la suerte un camino
    D7*          G
te vuelvo a encontrar...


E|--[[| Intro2]]--

          G
Te miento si digo no haber pensado
          D/F#*
que era posible y que sucedería,
           C       C/B
y algo se mueve recrea esta
     Am7*   D7*              G   C D7*
inminente escena y nos la envía.


         G
Y me recuerda el verte tantas cosas
             D/F#*
que en algún sitio he dejado en suspenso
        C           C/B      Am7*
que solamente han estado esperando
    D7*    G
por este momento.


              C                  D7*
Que si un día fueron tuvieron sentido
        G           D/F#     Em    Em/D
para volver a enfrentarnos delante
          C        C/B        Am7*    D7*
dejando atrás al tiempo y sus abismos
           G               C      C/B
con sus llamadas y sus visitantes
             Am7*                    D7*
Para el reencuentro que tengo hoy contigo,
          G
en este lugar..


E|--[[| Intro2 (solo cuatro primeros compases)]]--

           Am7*              D7*
Yo se que siempre se sigue delante
             G              D/F#*   Em   Em/D
y que nos llenamos de otros nuevos días
         C           C/B         Am7*
y al eventual transcurrir de las tardes
    Am/G       F         F/E      D7
un día vi el batir de las alas de ayer


            C                 D7*
Más no partió tu recuerdo incesante
              G         D/F#*    Em  Em/D
y aún me despierta el eco de tu risa
           C        C/B          Am7*
de vuelta atrás, donde a veces estás,
         Am/G      F        F/E      D7
pero que hago con tanto que nunca se fue


          C                   D7*
Si cada quien va jugando y su vida
             G          D/F#     Em    Em/D
con lo que cree de lo que le enseñaron
          C       C/B       Am7*   D7*
y andamos siempre tan definitivos
        G         D/F#      Em  Em/D
tan decididos a purificarnos
                 C         C/B      Am7*
Lo cierto es que hace unos meses me da
      Am/G        F      F/E  D7
por ponerme a esperar...


         C                         D7*
Si te lo cuento es porque estás volviendo
       G        D/F#     Em   Em/D
amaneciendo vendrás los días
          C                   D7*
el tiempo pasa y porque no te tengo es
            G                C    C/B
que solo me ha quedado tu partida


       Am7*                D7*
Ayer deje de guardarte canciones
          G               D/F#* Em    Em/D
hoy te propongo esta y me voy dejando
            C       C/B          Am7*     D7*
la puerta abierta para que a tu vuelta no dejes de en

  trar.....                                                 no dejes de en
E|------------------------|------------------------|------------------------|
B|-----1----0-h-1--0------|-----1----0-h-1--0------|-----1----0-h-1--0------|
G|---0-----------------0--|---0-----------------0--|---0-----------------0--|
D|-------2----------------|-------2----------------|-------2----------------|
A|-3----------------------|-3----------------------|-3----------------------|
E|------------------------|------------------------|------------------------|
  C


G
 trar.....
Outros vídeos desta música
    141 exibições
      • ½ Tom
      • A
      • Bb
      • B
      • C
      • Db
      • D
      • Eb
      • E
      • F
      • F#
      • G
      • Ab
    • Adicionar à lista

    Afinação da cifra

    Afinador online

      0 comentários

      Ver todos os comentários

      Conseguiu tocar?

      0Tocaram0Ainda não

      Grave um vídeo tocando A tu vuelta e nos envie!

      Toque também

      1. Imagem do artista Silvio RodriguezOjalá Silvio Rodriguez
      2. Imagem do artista Joaquín SabinaY Nos Dieron Las Diez Joaquín Sabina
      3. Imagem do artista Pablo MilanésYolanda Pablo Milanés
      4. Imagem do artista Luis Eduardo AuteSin tu Latido Luis Eduardo Aute

      Entre para o Cifra Club PRO

      Tenha acesso a benefícios exclusivos no App e no Site

      • Chega de anúncios

      • Badges exclusivas

      • Mais recursos no app do Afinador

      • Atendimento Prioritário

      • Aumente seu limite de lista

      • Ajude a produzir mais conteúdo

      Cifra Club Pro

      Aproveite o Cifra Club com benefícios exclusivos e sem anúncios
      Cifra Club Pro
      Aproveite o Cifra Club com benefícios exclusivos e sem anúncios
      Ops (: Contenido disponible sólo en portugués.
      OK