Cifra Club

Lili Marleen

Marlene Dietrich

Cifra: Principal (violão e guitarra)
Selo Cifra Club: esta cifra foi revisada para atender aos critérios oficiais da nossa Equipe de Qualidade.
tom: G
[Verse]
   G        +       +       +     D7  +       +       +       +              +       +       +
E|------------------------------|-------------3---2---------------|------------------------------|
B|-0--------1---3-------0-------|-1-------------------------------|----------0---1-----------3---|
G|------------------0-------0---|-----2---------------2-------2---|-2----------------2-----------|
D|------0---------------0-------|---------0---------------0-------|------0---------------0-------|
A|------------------------------|-0---------------0---------------|--------------0---------------|
E|-3------------3---------------|---------------------------------|-2----------------------------|

       +       +   G   +       +     C   +   D7  +       +       +     G   +       + Gmaj7 +       +
E|-2--p0---------------------------|-0-------2--h3---2-------0-------|-0---------------2-----------0---|
B|---------3--p1---0---------------|---------------------------------|---------3-----------------------|
G|---------------------0-------0---|-----0---------------2-------2---|-----0-------0-------0-----------|
D|---------0---------------0-------|---------0---------------0-------|---------0---------------0-------|
A|-0-------------------------------|-3---------------0---------------|-----------------2---------------|
E|-----------------3---------------|---------------------------------|-3-------------------------------|

   D7  +       +   Am  +       +     G   +       +       +       +     C   +   D7  +       +       +
E|-----------------0---------------|---------------------------------|-0-------2--h3---2-------0-------|
B|-3-------1-------------------3---|-1-------0-------3---------------|---------------------------------|
G|-----2-------2-------2-----------|-----0-------0-------0-------0---|-----0---------------2-------2---|
D|---------0---------------2-------|---------0---------------0-------|---------0---------------0-------|
A|-0---------------0---------------|-----------------2---------------|-3---------------0---------------|
E|---------------------------------|-3-------------------------------|---------------------------------|

   G   +       + Gmaj7 +       +     D7  +       +       +          G   +       +       +       +
E|-0---------------2-----------0---|-------------------------3/5-\|-3-------------------------------|
B|---------3-----------------------|-3-----------1---1------------|-----------------------------0---|
G|-----0-------0-------0-----------|-----2---------------2--------|-----0-------0-------0-----------|
D|---------0---------------0-------|---------0---------------0----|---------0---------------0-------|
A|-----------------2---------------|-0---------------0------------|-----------------2---------------|
E|-3-------------------------------|------------------------------|-3-------------------------------|

   D7  +       +               G
E|---------------------------|-3-------------------|
B|-3-----------1---1---------|-0-------------------|
G|-----2---------------------|-0-------------------|
D|---------0------------4----|------0---------0----|
A|-0--------------------0----|-----------2---------|
E|-----------------2---------|-3-------------------|

[Lyrics]

Vor der Kaserne, vor dem grossen Tor,
stand eine Laterne, und  steht sie noch davor.
So wollen wir uns da wiedersehn,
vor der Laterne woll’n wir steh’n
wie einst, Lilli Marleen, wie einst, Lilli Marleen. 

Unsre beider Schatten, sah wie einer aus,
dass wir so lieb uns hatten, dass sah man gleich daraus.
Und alle Leute soll’n es sehn,
wenn wir bei der Laterne steh’n,
wie einst, Lilli Marleen, wie einst, Lilli Marleen. 

Deine Schritte kennt sie, deinen schönen Gang,
alle  Abend brennt sie, doch mich vergaß sie lang.
Und sollte mir ein Leid gescheh’n,
wer wird bei der Laterne steh`n,
mit dir, Lilli Marleen, mit dir, Lilli Marleen.

Aus dem stillen Raume, aus der Erde Grund,
hebt sich wie im Traume dein vgeliebter Mund.
Wenn sich die späten Nebel dreh’n, 
werd ich bei der Laterne steh’n,
mit dir, Lilli Marleen, mit dir, Lilli Marleen.

************************************                              

| h   Hammer-on                                        
| p   Pull-off
| /   Slide up
| /   Slide down
                                          
00:00 / 00:00
Outros vídeos desta música
Repetir
Outros vídeos desta música
42 exibições
    • ½ Tom
    • A
    • Bb
    • B
    • C
    • Db
    • D
    • Eb
    • E
    • F
    • F#
    • G
    • Ab
  • Adicionar à lista

Afinação da cifra

Afinador online

    0 comentários

    Ver todos os comentários

    Entre para o Cifra Club PRO

    Tenha acesso a benefícios exclusivos no App e no Site

    • Chega de anúncios

    • Mais recursos no app do Afinador

    • Atendimento Prioritário

    • Aumente seu limite de lista

    • Ajude a produzir mais conteúdo

    00:00 / 00:00

    Cifra Club Pro

    Aproveite o Cifra Club com benefícios exclusivos e sem anúncios
    Cifra Club Pro
    Aproveite o Cifra Club com benefícios exclusivos e sem anúncios
    OK