Cifra Club

Crow Bar Hotel

Dirty Heads

Cifra: Principal (violão e guitarra)
Selo Cifra Club: esta cifra foi revisada para atender aos critérios oficiais da nossa Equipe de Qualidade.
tom: D
[Intro]
E|---------------------------------------------------------------------------|
B|---------------------------------------------------------------------------|
G|---------------------------------------------------------------------------|
D|-7/9--7--------------------------------------------------------------------|
A|---------7--9--7--5--7--5---------5---7--9--7--5--7--5---------------------|
E|----------------------------5--7-------------------------------------------|

E|---------------------------------------------------------------------------|
B|---------------------------------------------------------------------------|
G|----------9--11--9--7--9--9h11--7------------------------------------------|
D|-7/9--7--------------------------------------------------------------------|
A|---------------------------------------------------------------------------|
E|---------------------------------------------------------------------------|


[Intro]
  N.C.
...and wild, ready?
  N.C.
Take my pants off

One, two, one, two

[Refrain]
  D
Sometimes I wanna hear the magpies
  G
Too bad they don't sing at midnight
  A                                  D
Moonlight, I need a little sunshine now

[Verse 1]
  D
My time dancing on the black top
  G
My song playing when the birds talk
  A                                  D
Moonlight, I need a little sunshine now

[Chorus]
   D
Say hello on the breeze
   G
Come and go as they please
   A                              D
Oh, ain't no laws when you can fly
   D
Every night I close my eyes
   G
I long to see the sky
   A                              D
All my little friends are innocent
   D
Yeah, they be singin' like...

[Instrumental] *Whistling*
D  G  A  D

[Refrain]
 D
Sometimes I wanna hear the magpies
 G
Too bad they don't sing at midnight
 A                                   D
Moonlight, I need a little sunshine now

[Verse 2]
 D
My friends sitting on the barbed wire
 G
Their coats blacker than a car tire
 A                                         D
Can't stop singing 'bout the good times now

[Chorus]
 D
Say hello on the breeze
  G
Come and go as they please
  A                                D
Oh, ain't no laws when you can fly
  D
Every night I close my eyes
  G
I long to see the sky
  A                                 D
All of my little friends are innocent
  D
And they be singin' like...

[Bridge]
  G                               D
Mornin', we'll be back in the mornin'
                         A                          D       D7
Until then, we'll be soarin', just waitin' to sing this song
  G                                D
Mornin', we'll be back in the mornin'
                        A                      D   D
Until then, we'll be soaring, just waiting to sing

[Chorus]
    D
Say hello on the breeze
    G
Come and go as they please
    A                              D
Oh, it ain't no laws when you can fly
    D
Every night I close my eye
    G
I long to see the sky
    A                              D
All of my little friends are innocent

And they singin' like...

[Instrumental] *Whistling* (Intro riff)
D  G  A  D  D  D G

[Outro]
  A                                  D
Moonlight, I need a little sunshine now
Outros vídeos desta música
    18 exibições
      • ½ Tom
      • A
      • Bb
      • B
      • C
      • Db
      • D
      • Eb
      • E
      • F
      • F#
      • G
      • Ab
    • Adicionar à lista

    Afinação da cifra

    Afinador online

      0 comentários

      Ver todos os comentários

      Entre para o Cifra Club PRO

      Tenha acesso a benefícios exclusivos no App e no Site

      • Chega de anúncios

      • Badges exclusivas

      • Mais recursos no app do Afinador

      • Atendimento Prioritário

      • Aumente seu limite de lista

      • Ajude a produzir mais conteúdo

      Cifra Club Pro

      Aproveite o Cifra Club com benefícios exclusivos e sem anúncios
      Cifra Club Pro
      Aproveite o Cifra Club com benefícios exclusivos e sem anúncios
      Ops (: Contenido disponible sólo en portugués.
      OK