Cifra Club

A Grande Família

Dudu Nobre

Cifra: Principal (violão e guitarra)
Selo Cifra Club: esta cifra foi revisada para atender aos critérios oficiais da nossa Equipe de Qualidade.
tom: Bb
[Intro] Bb  Cm  Bb/D  Eb7M
        Ebm6  Bb7M  A7  Ab7  G7
        C7(9)  F7  Bb7M

[Tab - Intro]

Parte 1 de 3
   Bb  Cm  Bb/D  Eb7M      Ebm6
E|-------------------------6--6---6---------|
B|-3---4---3-----8-8--8-8--7--7---7---------|
G|-3---5---3-----7-7--7-7--5--5---5---------|
D|-3---5---3-----8-8--8-6-------------------|
A|-1---3---5-----6----6----6----6-----------|
E|------------------------------------------|

Parte 2 de 3
       Bb7M  A7  Ab7  G7        C7(9)
E|--x---------------------------------------|
B|--x--6-----5---4----3--3---3--3---3--3-3--|
G|--x--7-----6---5----4--4---4--3---3--3-3--|
D|--x--7-----5---4----3--3---3--2---2--2-2--|
A|--x-----------------------------3---------|
E|--x--6-----5---4----3----3-----------3----|

Parte 3 de 3
   F7          Bb7M  Bb7
E|------------------------------------------|
B|-1-1-----1---3-----3----------------------|
G|-2-2-----2---2-----1----------------------|
D|-1---1-------3-----3----------------------|
A|-------------1-----1----------------------|
E|-1-----1----------------------------------|

Parte 3 de 3 (variação)
   F7          Bb7M  
E|------------------------------------------|
B|-1-1-----1---3----------------------------|
G|-2-2-----2---2----------------------------|
D|-1---1-------3----------------------------|
A|-------------1----------------------------|
E|-1-----1----------------------------------|

[Tab - Solo - Intro]

E|-11--10-----------------------------------|
B|--------13-11--9--------------------------|
G|------------------11-10-------------------|
D|------------------------------------------|
A|------------------------------------------|
E|------------------------------------------|

E|----10-13--15-12--11---10-----------------|
B|-11---------------------------------------|
G|------------------------------------------|
D|------------------------------------------|
A|------------------------------------------|
E|------------------------------------------|

[Primeira Parte]

[Tab - Primeira Parte]

Parte 1 de 4
   Eb7M              Ebm6
E|-------------------6---6--6-6--6-6-----6--|
B|-8-8-8-8-8--8---8--7---7--7-7--7-7-----7--|
G|-7-7-7-7-7--7---7--5---5--5-5--5---5------|
D|-8-8-8-8-8--8---8-------------------------|
A|-6---6---6----6------6---------6----------|
E|--------------------------6----------6----|

Parte 2 de 4
   Bb7M              A7  Ab7   
E|-------------x----------------------------|
B|-6---6--6-6--x--6--5---4------------------|
G|-7---7--7-7--x--7--6---5------------------|
D|-7---7--7-7--x--7--5---4------------------|
A|-------------x----------------------------|
E|---6----6----x--6--5---4------------------|
 
Parte 3 de 4
   G7                   C7(9)
E|-----3------------------------------------|
B|-3---3-3-3--3-3-----3-3---3--3-3-3-3-----3|
G|-4---4-4-4--4-4-----4-3---3--3-3-3-3-----3|
D|-3-----3-3--3---3-----2---2--2-2-2---2----|
A|------------------------3--------3--------|
E|---3---3----3-----3----------3---------3--|
 
Parte 4 de 4
   F7                      Bb7M
E|-----1------------------------------------|
B|-1---1--1-1--1-1-----1---6--6-------------|
G|-2---2--2-2--2-2-----2---7--7-------------|
D|-1------1-1--1---1-------7--7-------------|
A|------------------------------------------|
E|---1----1----1-----1-----6--6-------------|

        Bb7            Eb7M  Ebm6
Esta família é muito unida
                    Bb7M  A7  Ab7
E também muito ouriçada
G7                  C7(9)                        
   Brigam por qualquer razão
F7                        Bb7M
   Mas acabam pedindo perdão

[Pré-Refrão]

[Tab - Pré-Refrão]

Parte 1 de 2
   F7           Bb7M
E|------------------------------------------|
B|-6--6---6-----6--6---6--------------------|
G|-8--8---8-----7--7---7--------------------|
D|-7--7-----7---7--7-----7------------------|
A|-8----------------------------------------|
E|------8-------6----6----------------------|
 
Parte 2 de 2
   Em7(5-)  A7(13-)  Dm7(9)
E|------------------------------------------|
B|-8-8-------6-------5--5-------------------|
G|-7-7-------6-------5--5-------------------|
D|-8---8-----5-------3--3-------------------|
A|-7-----------------5--5-------------------|
E|---------5--------------------------------|

         F7  
Pirraça pai, pirraça mãe
         Bb7M
Pirraça filha
                    F7
Eu também sou da família
                   Bb7M
Também quero pirraçar
        F7
Catuca pai, catuca mãe
        Bb7M
Catuca filha
                    Em7(5-)
Eu também sou da família
         A7(13-)  Dm7(9)
Também quero catucar

[Refrão]

[Tab - Refrão]

Parte 1 de 2
   Eb7M     Em7(5-)  Bb/F     G7/D
E|-------3--------3-------------------------|
B|-----3--------3----------3--------3-------|
G|---3--------3----------3--------4---------|
D|-1--------2----------3--------3-----------|
A|----------------------------5-------------|
E|-------------------1----------------------|

Parte 2 de 2
   C7(9)    F7       Bb7M  Eb7(9)  Db7M  Bb7M
E|------------------------------------------|
B|-------3--------1--3-----6-------6-----6--|
G|-----3--------2----2-----6-------5-----7--|
D|---2--------1------3-----5-------6-----7--|
A|-3-----------------1-----6-------4--------|
E|----------1----------------------------6--|
 
Parte 2 de 2 (variação)
   C7(9)    F7       Bb7M  
E|------------------------------------------|
B|-------3--------1--3----------------------|
G|-----3--------2----2----------------------|
D|---1--------1------3----------------------|
A|-3-----------------1----------------------|
E|----------1-------------------------------|

        Eb7M  Em7(5-)  Bb/F 
Catuca pai,  mãe,     filha
       G7/D         C7(9)          
Eu também sou da família
         F7       Bb7M
Também quero catucar

[Solo] Eb7(9)  Db7M  Bb7M 
       Bb  Cm  Bb/D  Eb7M 
       Ebm6  Bb7M  A7  Ab7  G7 
       C7(9)  F7  Bb7M 

[Tab - Solo]

E|-10--9-8------------------------6---------|
B|---------11-10-9-8---------6--8-----------|
G|-------------------10-8--7----------------|
D|------------------------------------------|
A|------------------------------------------|
E|------------------------------------------|

Que família, hein!

[Introdução]

Bb  Cm  Bb/D   Eb7M          Ebm6
             Quais, quais, quais
                Bb7M
Quais, quais, quais
  A7     Ab7    G7
Quais, quais, quais, quais
  C7(9)  F7     Bb7M
Quais, quais, quais

[Primeira Parte]

        Bb7            Eb7M  Ebm6
Esta família é muito unida
                    Bb7M  A7  Ab7
E também muito ouriçada
G7                  C7(9)                        
   Brigam por qualquer razão
F7                        Bb7M
   Mas acabam pedindo perdão

[Pré-Refrão]

         F7  
Pirraça pai, pirraça mãe
         Bb7M
Pirraça filha
                    F7
Eu também sou da família
                   Bb7M
Também quero pirraçar
        F7
Catuca pai, catuca mãe
        Bb7M
Catuca filha
                    Em7(5-)
Eu também sou da família
         A7(13-)  Dm7(9)
Também quero catucar

[Refrão]

        Eb7M  Em7(5-)  Bb/F 
Catuca pai,  mãe,     filha
       G7/D         C7(9)          
Eu também sou da família
         F7       Bb7M
Também quero catucar

[Passagem] F7  Bb7M  F7  Bb7M 
           F7  Bb7M  F7  Bb7M 

[Tab - Passagem]

Parte 1 de 2
   F7           Bb7M
E|------------------------------------------|
B|-6--6---6-----6--6---6--------------------|
G|-8--8---8-----7--7---7--------------------|
D|-7--7-----7---7--7-----7------------------|
A|-8----------------------------------------|
E|------8-------6----6----------------------|
 
Parte 2 de 2 (variação)
   F7           Bb7M        Bb7
E|------------------------------------------|
B|-6--6---6-----6--6---6----6-6-6-6---------|
G|-8--8---8-----7--7---7----7-7-7-7---------|
D|-7--7-----7---7--7-----7--6-6-6-6---------|
A|-8----------------------------------------|
E|------8-------6----6------6---6-----------|

[Primeira Parte]

        Bb7              Eb7M  Ebm6
Esta família é muito unida
                    Bb7M  A7  Ab7
E também muito ouriçada
G7                  C7(9)                        
   Brigam por qualquer razão
F7                        Bb7M
   Mas acabam pedindo perdão

[Pré-Refrão]

         F7  
Pirraça pai, pirraça mãe
         Bb7M
Pirraça filha
                    F7
Eu também sou da família
                   Bb7M
Também quero pirraçar
        F7
Catuca pai, catuca mãe
        Bb7M
Catuca filha
                    Em7(5-)
Eu também sou da família
         A7(13-)  Dm7(9)
Também quero catucar

[Refrão]

        Eb7M  Em7(5-)      Bb/F 
Catuca pai,          mãe, filha
G7/D       C7(9)          
     Da família
         F7       Bb7M
Também quero catucar

 Bb  Cm  Bb/D  Eb7M          Ebm6
Ca__tu__cas, quais, quais, quais
                Bb7M
Quais, quais, quais
  A7     Ab7    G7
Quais, quais, quais, quais
  C7(9)  F7     Bb7M  
Quais, quais, quais

 Bb  Cm  Bb/D  Eb7M          Ebm6
Ca__tu__cas, quais, quais, quais
                Bb7M
Quais, quais, quais
  A7     Ab7    G7
Quais, quais, quais, quais
  C7(9)  F7     Bb7M  
Quais, quais, quais

[Segunda Parte]

[Tab - Segunda Parte]

Parte 1 de 2
   F7           Bb7M
E|------------------------------------------|
B|-6--6---6-----6--6---6--------------------|
G|-8--8---8-----7--7---7--------------------|
D|-7--7-----7---7--7-----7------------------|
A|-8----------------------------------------|
E|------8-------6----6----------------------|
 
Parte 2 de 2
   Bb7M(11+)
E|-5-------------5--------------------------|
B|-5-------------5--------------------------|
G|-7-------------7--------------------------|
D|-7----------------------------------------|
A|------------------------------------------|
E|-6----------------------------------------|

F7                    Bb7M
   Uma tem medo de barata
F7                      Bb7M
O outro tem medo de ladrão
F7                       Bb7M
A filha só pensa no namorado
           F7 
Ei, ei cumpade
     Bb7M                     
Num fala de boca cheia na mesa
     Bb7M(11+)
Hein
Outros vídeos desta música
    275.024 exibições
    • Simplificar cifra
      • ½ Tom
      • A
      • Bb
      • B
      • C
      • Db
      • D
      • Eb
      • E
      • F
      • F#
      • G
      • Ab
    • Adicionar à lista

    Afinação da cifra

    Afinador online

      0 comentários

      Ver todos os comentários

      Entre para o Cifra Club PRO

      Tenha acesso a benefícios exclusivos no App e no Site

      • Chega de anúncios

      • Badges exclusivas

      • Mais recursos no app do Afinador

      • Atendimento Prioritário

      • Aumente seu limite de lista

      • Ajude a produzir mais conteúdo

      Capítulos
      • Apresentação
      • Tocando a Música
      • Acordes da Intro
      • Ensinando a Harmonia da Intro
      • Ensinando o Solo da Intro
      • Ensinando a Primeira Parte
      • Acordes do Pré-Refrão
      • Ensinando o Pré-Refrão
      • Acordes do Refrão
      • Tocando o Refrão
      • Ensinando o Refrão
      • Ensinando o Solo do Refrão
      • Acorde da Passagem
      • Tocando a Passagem
      • Ensinando a Passagem
      • Acorde da Segunda Parte
      • Tocando a Segunda Parte
      • Ensinando a Segunda Parte/Final
      • Encerramento

      Cifra Club Pro

      Aproveite o Cifra Club com benefícios exclusivos e sem anúncios
      Cifra Club Pro
      Aproveite o Cifra Club com benefícios exclusivos e sem anúncios
      Ops (: Contenido disponible sólo en portugués.
      OK