Cifra Club

Aprenda

Pé Na Areia

Diogo Nogueira

Cifra: Principal (violão e guitarra)
tom: D
[Intro] G7M  D7M  G7M  D7M 

[Solo]

Parte 1 de 3

E|--4-4-4-4-2-4-0---4-4-4-4-2-4---5-4-2---|
B|----------------------------------------|
G|----------------------------------------|
D|----------------------------------------|
A|----------------------------------------|
E|----------------------------------------|

Parte 2 de 3

E|----------------------------------------|
B|--2-2-2-2-0-2------2-2-2-2-0-2----------|
G|--------------2----------------2--------|
D|----------------------------------------|
A|----------------------------------------|
E|----------------------------------------|

Parte 3 de 3

E|--4-4-4-4-2-4-0---4-4-4-4-2-4---5-4-2---|
B|----------------------------------------|
G|----------------------------------------|
D|----------------------------------------|
A|----------------------------------------|
E|----------------------------------------|

D7M(9)
Vamos amor
                       D7/4/9
Vamos curtir, bora pra beira do mar
                    G7M         G6
Vamos pra onde tá fazendo mais calor
                     Gm7
E ninguém pode nos achar

D7M(9)
Bora viver
                   D7/4/9
Você e eu agora, eu e você
                     G7M       G6
Vamos pra onde tudo pode acontecer
           Eb7M
Inclusive nada

Em7(9)                                 D7M(9)      Em7(9)
Nada pode ser melhor do que a gente junto, nós dois
                                         D7M(9)         Em7(9)
Mil idéias e uma história de amor, e o assunto é nós dois
                                     D7M(9)     A/B
Dois amantes namorando na beira da praia, iá iá iá
Em7(9)                             F#7/4   F#
Nada pode ser melhor pra gente se amar

       Em7(9)        G7M              D7M      B7(9)
Pé na areia, a caipirinha, água de côco, a cervejinha
       Em7(9)          G7M          D7M    B7(9)
Pé na areia, água de côco, beira do mar
        Em7(9)        G7M              D7M      B7(9)
Pé na areia, a caipirinha, água de côco, a cervejinha
       Em7(9)          G7M            D7M
Pé na areia, água de côco, beira do mar

( A/B )
Composição de Cauique / Diogo Leite / Rodrigo Leite
Colaboração e revisão:
160.495 exibições
  • Simplificar cifra
    • ½ Tom
    • A
    • Bb
    • B
    • C
    • Db
    • D
    • Eb
    • E
    • F
    • F#
    • G
    • Ab
  • Adicionar à lista

    0 comentários

    Ver todos os comentários

    Conseguiu tocar?

    18 Tocaram 11 Ainda não

    Grave um vídeo tocando Pé Na Areia e nos envie!

    00:00 / 00:00
    Outros vídeos desta música
    Repetir Qualidade Automático
    Outros vídeos desta música
    00:00 / 00:00
    Automático

    Cifra Club Pro

    Aproveite o Cifra Club com benefícios exclusivos e sem anúncios
    Cifra Club Pro
    Aproveite o Cifra Club com benefícios exclusivos e sem anúncios
    OK