Cifra Club

Pé Na Areia

Diogo Nogueira

Cifra: Principal (violão e guitarra)
Selo Cifra Club: esta cifra foi revisada para atender aos critérios oficiais da nossa Equipe de Qualidade.
tom: D
[Intro] G7M  D7M(2)  G7M 

[Tab - Intro]

Parte 1 de 4
   G7M
E|-2-2-2-2-0--2------------2-2-2-2-0--2-----|
B|-3-3-3-3-3--3--3------3--3-3-3-3-3--3-----|
G|-4-4-4-4-4--4--4----4----4-4-4-4-4--4-----|
D|-5-----------------------5-----5----5-----|
A|------------------------------------------|
E|------------------------------------------|

Parte 2 de 4
   D7M
E|-3--2--0----------------------------------|
B|----------2-2-2-2----2-----2-2-2-2----2---|
G|----------2-2-2-2-4-----2--2-2-2-2-4----2-|
D|----------0----------------0--------------|
A|------------------------------------------|
E|------------------------------------------|

Parte 3 de 4
   G7M
E|-2-2-2-2-0--2------------2-2-2-2-0--2-----|
B|-3-3-3-3-3--3--3------3--3-3-3-3-3--3-----|
G|-4-4-4-4-4--4--4----4----4-4-4-4-4--4-----|
D|-5-----------------------5-----5----5-----|
A|------------------------------------------|
E|------------------------------------------|

Parte 4 de 4
   D7M
E|-3--2--0--2-------------------------------|
B|----------2-------------------------------|
G|----------2-------------------------------|
D|----------0-------------------------------|
A|------------------------------------------|
E|------------------------------------------|

[Primeira Parte]

D7M(2)
       Vamos amor, vamos curtir 
          Am7         
Bora pra beira do mar
        D7(9)        G7M         
Vamos pra onde tá fazendo mais calor
   G6                 Gm7
E ninguém pode nos achar

D7M(2)
       Bora viver
                 Am7       D7(9)
Você e eu agora, eu e você
                     G7M           G6
Vamos pra onde tudo pode acontecer
           Eb7M
Inclusive nada

[Pré-Refrão]

Em7(9)                     
       Nada pode ser melhor 
                D7M(2)         Em7(9)
Do que a gente junto, nós dois
                                   
Mil ideias e uma história de amor
  D7M(2)               Em7(9)
E o assunto é nós dois
                      
Dois amantes namorando 
              D7M(2)     
Na beira da praia, iá iá iá
Em7(9)                
       Nada pode ser melhor 
               F#7(4)  (frase)
Pra gente se amar

[Tab - Frase]

E|------------------------------------------|
B|------------------------------------------|
G|------------------------------------------|
D|----2--4-4-4-4-4--------------------------|
A|-4----------------------------------------|
E|------------------------------------------|

[Refrão]

        Em7(9)       G7M  
Pé na areia, a caipirinha
         D7M(2)       B7
Água de coco, a cervejinha
        Em7(9)        G7M 
Pé na areia, água de coco
          D7M(2)  B7
Beira do mar

        Em7(9)       G7M  
Pé na areia, a caipirinha
         D7M(2)       B7
Água de coco, a cervejinha
        Em7(9)        G7M 
Pé na areia, água de coco
          D7M(2)
Beira do mar

[Primeira Parte]

D7M(2)
       Vamos amor, vamos curtir 
          Am7         
Bora pra beira do mar
        D7(9)        G7M         
Vamos pra onde tá fazendo mais calor
   G6                 Gm7
E ninguém pode nos achar

D7M(2)
       Bora viver
                 Am7       
Você e eu agora, eu e você
        D7(9)        G7M           G6
Vamos pra onde tudo pode acontecer
           Eb7M
Inclusive nada

[Pré-Refrão]

Em7(9)                     
       Nada pode ser melhor 
                D7M(2)         Em7(9)
Do que a gente junto, nós dois
                                   
Mil ideias e uma história de amor
       D7M(2)          Em7(9)
E o assunto é nós dois
                      
Dois amantes namorando 
              D7M(2)     
Na beira da praia, iá iá iá
Em7(9)                
       Nada pode ser melhor 
               F#7(4)  (frase)
Pra gente se amar

[Refrão Final]

        Em7(9)       G7M  
Pé na areia, a caipirinha
         D7M(2)       B7
Água de coco, a cervejinha
        Em7(9)        G7M 
Pé na areia, água de coco
          D7M(2)  B7
Beira do mar

        Em7(9)       G7M  
Pé na areia, a caipirinha
         D7M(2)       B7
Água de coco, a cervejinha
        Em7(9)        G7M 
Pé na areia, água de coco
          A6/B
Beira do mar

        Em7(9)       G7M  
Pé na areia, a caipirinha
         D7M(2)       B7
Água de coco, a cervejinha
        Em7(9)        G7M 
Pé na areia, água de coco
          D7M(2)  B7
Beira do mar

        Em7(9)       G7M  
Pé na areia, a caipirinha
         D7M(2)       B7
Água de coco, a cervejinha
        Em7(9)        G7M 
Pé na areia, água de coco
          D7M(2)  
Beira do mar

[Final] G7M  D7M(2)  G7M  D7M(2)
00:00 / 00:00
Outros vídeos desta música
Repetir
Outros vídeos desta música
499.197 exibições
  • Simplificar cifra
    • ½ Tom
    • A
    • Bb
    • B
    • C
    • Db
    • D
    • Eb
    • E
    • F
    • F#
    • G
    • Ab
  • Adicionar à lista

Afinação da cifra

Afinador online

    0 comentários

    Ver todos os comentários

    Entre para o Cifra Club PRO

    Tenha acesso a benefícios exclusivos no App e no Site

    • Chega de anúncios

    • Mais recursos no app do Afinador

    • Atendimento Prioritário

    • Aumente seu limite de lista

    • Ajude a produzir mais conteúdo

    00:00 / 00:00
    Capítulos
    • Apresentação
    • Tocando a Música
    • Acordes da Intro
    • Tocando a Intro
    • Ensinando o Ritmo
    • Ensinando a Intro
    • Tocando o Solo
    • Dicas do Solo
    • Ensinando o Solo
    • Acordes da Primeira Parte
    • Tocando a Primeira Parte
    • Ensinando a Primeira Parte
    • Acordes do Pré-Refrão
    • Tocando o Pré-Refrão
    • Ensinando o Pré-Refrão
    • Acorde do Refrão
    • Tocando o Refrão
    • Ensinando o Refrão
    • Acorde do Refrão Final
    • Tocando o Refrão Final
    • Ensinando o Refrão Final
    • Encerramento

    Cifra Club Pro

    Aproveite o Cifra Club com benefícios exclusivos e sem anúncios
    Cifra Club Pro
    Aproveite o Cifra Club com benefícios exclusivos e sem anúncios
    OK