Cifra Club

Aprenda

Muito Sobre a Vida

Eduardo Araújo

Cifra: Principal (violão e guitarra)
tom: C

E|------------------|--------------------|----------------|------------------|
B|------------------|--------------------|----------------|------------------|
G|------------------|--------------------|----------------|------------------|
D|------------------|-------------2------|----------------|------------5-7-5-|
A|-2h3-3-2h3-3-2h3-3|--2h3-3-3-3----3----|-2h3-3-2h3-3-2h3|3-2h3-3-5/7-------|
E|------------------|--------------------|----------------|------------------]

E|-----------------------|-----------|-------------|-----------------------|
B|-----------------------|-----------|-------------|------------5sm-----5--|
G|-5---------------------|-----------|-------------|------------5sm-----5--|
D|-------7-----5--7------|-5--7------|-------------|---5--7--5-------------|
A|----7-----7--------6/7-|------5hbr-|-3----------5/7----------------------|
E|-----------------------|-----------|-------------|-----------------------|

C
Eu vivia voando no meu velho carro
        G                  C
Que era envenenado como cascavel
C
E na longa estrada de estreito asfalto
C     G                             G
Só me ultrapassavam se viessem pelo céu

F
Sexta-feira era de se chocar
C
Piramide de lata sobre a luz do luar
F
Falávamos de carro e o assunto era mulher
D7                    G
Planos nós fazíamos e viver e o que queríamos

C
E o nosso ponto era em qualquer lugar
        G                               C
Só hoje eu vejo quanto isso foi bom pra mim
C
E eu aprendi a viver com muito pouco
C     G                             C
Muito sobre a vida e um pouco sobre amor

C
E os vidros da caranga embaçavam de paixão
  G                          C
E eu queria tudo e ela ainda não
C
Só no amasso muitos beijos e um sorvete no final
C      G                            C
Levava ela pra casa e voltava pro astral

F
Sexta-feira era de se chocar
C
Piramide de lata sobre a luz do luar
F
Falávamos de carro e o assunto era mulher
D7                    G
Planos nós fazíamos e viver e o que queríamos

C
E o nosso ponto era em qualquer lugar
        G                               C
Só hoje eu vejo quanto isso foi bom pra mim
C
E eu aprendi a viver com muito pouco
C     G                             C
Muito sobre a vida e um pouco sobre amor

C
Eu vivia voando no meu velho carro
        G                  C
Que era envenenado como cascavel
C
E na longa estrada de estreito asfalto
C     G                             C
Só me ultrapassavam se viessem pelo céu

C
E os vidros da caranga embaçavam de paixão
   G                       G
Eu queria tudo e ela ainda não
C
Só no amasso lindos beijos e um sorvete no final
C      G                             C
Levava ela pra casa e voltava pro astral

F
Sexta-feira era de se chocar
C
Piramide de lata sobre a luz do luar
F
Falávamos de carro e o assunto era mulher
D7                    G
Planos nós fazíamos e viver e o que queriam

C
E o nosso ponto era em qualquer lugar
        G                               C
Só hoje eu vejo quanto isso foi bom pra mim
C
E eu aprendi a viver com muito pouco
C     G                             G
Muito sobre a vida e um pouco sobre amor
C     G                             G
Muito sobre a vida e um pouco sobre amor

E|---------------------|---------------0-|----------------------|
B|---------------1-----|---------------1-|----------------------|
G|--0------------0-----|----0----------0-|----------------------|
D|-----1p0-------------|-2-----2p0-------|----------------------|
A|----------3----------|------------3----|------------0-----2---|
E|---------------------|-----------------|-2h3--3--3------------]
Composição de Eduardo Araújo
Colaboração e revisão:
  • Luiz Xaxier
20 exibições
    • ½ Tom
    • A
    • Bb
    • B
    • C
    • Db
    • D
    • Eb
    • E
    • F
    • F#
    • G
    • Ab
  • Adicionar à lista

    0 comentários

    Ver todos os comentários

    Conseguiu tocar?

    0 Tocaram 0 Ainda não

    Grave um vídeo tocando Muito Sobre a Vida e nos envie!

    00:00 / 00:00
    outros vídeos desta música
    repetir qualidade Automático
    Outros vídeos desta música
    00:00 / 00:00
    Automático

    Cifra Club Pro

    Aproveite o Cifra Club com benefícios exclusivos e sem anúncios
    Cifra Club Pro
    Aproveite o Cifra Club com benefícios exclusivos e sem anúncios
    OK