Cifra Club

Rie cuando puedas

El Chojin

Cifra (violão e guitarra)
Selo Cifra Club: esta cifra foi revisada para atender aos critérios oficiais da nossa Equipe de Qualidade.
tom: A
     A           B7                 C#m
E|-----------|---------|--------------------------4------|
B|--------0--|--4---4--|-----5---5-----4-5p4--------4----|
G|------6----|--2---2--|-----6---6------------6-------6--| x2
D|-----------|--4---4--|-----6---6---6----------6--------|
A|----7------|--2---2--|--4--4---4-----------------------|
E|--5--------|---------|---------------------------------|



     A           B7                 C#m
E|-----------|---------|-----------------4--4--|------------------------|
B|--------0--|--4---4--|-----5---5-------5--5--|------------------------|
G|------6----|--2---2--|-----6---6-------6--6--|-----6--6--6--X---4--1--|
D|-----------|--4---4--|-----6---6----6--6--6--|--6--6--6--6--X---4--2--|
A|----7------|--2---2--|--4--4---4-------------|-----0--0--0--X---------|
E|--5--------|---------|-----------------------|---------------------0--|


[Verse]

     A                      F#m              D5              E
E|------------------|-----------------|-----------------|-----------------|
B|--------0---0--0--|--------0--0--0--|--------0--0--0--|--------0--0--0--|
G|------6-----6--6--|------4----4--4--|------5----5--5--|------1----1--1--|
D|------------------|-----------------|----7------------|-----------------|
A|----7-------------|----4------------|--5--------5--5--|----2------------|
E|--5---------5--5--|--2--------2--2--|-----------------|--0--------0--0--|

         A
Ahí me tenéis en uno de esos días
                     F#m
En los que nadie te coge el teléfono
                                D
Y las paredes se te echan encima

Yo se que siempre hay salida
                     E
Pero saber que todo ira mejor
No quita que me sienta echo una porquería


A
Pasan lo años los proyectos los sueños
F#m
Recuerdas como querías ser cuando eras pequeño?
D                                     E
Crecer es darse cuenta de que la vida no es como quisieras que fuera
Todo es mucho más complejo

A
Responsabilidades, luchas, deberes
F#m
Sonreír cuando no te apetece
D
Mentir para no hacer daño a la gente que quieres
E
Fingir cuando perfectamente sabes que te mienten

A
Merece la pena hacer lo que se supone
     F#m
Que debes mas veces de lo que realmente quieres?
D
Porque termine haciendo lo que todos hacen
  E
Si se supone que siempre me sentí diferente



         D                 E              Amaj7     C#m          F#m
E|------------------|------------------|-----------|-----------|--------------|
B|-----3--3---3--3--|-----0--0---0--0--|-----2--2--|-----5--5--|-----2--2--2--|
G|-----2--2---2--2--|-----1--1---1--1--|-----1--1--|-----6--6--|-----2--2--2--|
D|--0--0--0---0--0--|------------------|-----------|-----------|--------------|
A|------------------|------------------|--0--0--0--|--4--4--4--|-----------4--|
E|------------------|--0--0--0---0--0--|-----------|-----------|--2--2--2-----|


         D             E
E|-----------------|-------------|
B|-----3--3--2--3--|--0----------|
G|-----2--2--2--2--|--1----------|
D|--0--0--0--0--0--|-------------|
A|-----------------|-------------|
E|-----------------|--0----------|


D
He sido un cobarde disfrazado de valiente
E
Siempre pendiente del que dirá la gente
Amaj7            C#m
Escondo mis miedos para parecer fuerte
F#m
Pero ya no es mas es hora de ser consecuente
D
Porque ja creo que lo he visto amigo y


[Chorus]

          A               F#m              D5                 E
E|------------------|------------------|------------------|------------------|
B|-----0--0---0--0--|-----2--2---2--2--|------------------|-----0--0---0--0--|
G|-----6--6---6--6--|-----4--4---4--4--|------------------|-----1--1---1--1--|
D|------------------|------------------|-----6--6---6--6--|------------------|
A|------------------|------------------|-----7--7---7--7--|------------------|
E|--5--5--5---5--5--|--2--2--2---2--2--|--5--5--5---5--5--|--0--0--0---0--0--|



A
Quizás la clave para ser realmente libre
     F#m
Sea reír cuando puedas y llorar cuando lo necesites
D
Ser honesto con uno mismo
E
Centrarse en lo importante y olvidarse del ruido


A
Quizás la clave para ser realmente libre
     F#m
Sea reír cuando puedas y llorar cuando lo necesites
D
No cegarse con los objetivos
E
Tratar de relajarse y vivir algo mas tranquilo



[Intro]

     A           B7                 C#m
E|-----------|---------|--------------------------4------|
B|--------0--|--4---4--|-----5---5-----4-5-4--------4----|
G|------6----|--2---2--|-----6---6------------6-------6--| x2
D|-----------|--4---4--|-----6---6---6----------6--------|
A|----7------|--2---2--|--4--4---4-----------------------|
E|--5--------|---------|---------------------------------|



     A           B7                 C#m
E|-----------|---------|-----------------4--4--|--------------------|
B|--------0--|--4---4--|-----5---5-------5--5--|--------------------|
G|------6----|--2---2--|-----6---6-------6--6--|-----6--6--6--4--1--|
D|-----------|--4---4--|-----6---6----6--6--6--|--6--6--6--6--4--2--|
A|----7------|--2---2--|--4--4---4-------------|-----0--0--0--0-----|
E|--5--------|---------|-----------------------|-----------------0--|



[Verse]

     A                      F#m              D5              E
E|------------------|-----------------|-----------------|-----------------|
B|--------0---0--0--|--------0--0--0--|--------0--0--0--|--------0--0--0--|
G|------6-----6--6--|------4----4--4--|------5----5--5--|------1----1--1--|
D|------------------|-----------------|----7------------|-----------------|
A|----7-------------|----4------------|--5--------5--5--|----2------------|
E|--5---------5--5--|--2--------2--2--|-----------------|--0--------0--0--|



         A
Ahí me tenéis en uno de esos días
                     F#m
En los que nadie te coge el teléfono
                                D
Y las paredes se te echan encima

Yo se que siempre hay salida
                     E

A
Con este tema me hago una promesa
F#m
Y es hacer lo que sea para encontrar soluciones no problemas
D
Se que no soy perfecto bien
E
No me castigare más por no serlo

A
Voy a aprender a decir que no
     F#m
Aceptarme como soy a medir el valor
          D
Porque a veces fui valiente por miedo
Se que suena extraño
      E
Pero sabes que?
Lo peor de todo es que es cierto

A
Hoy busco dormir a gusto
F#m
No suena muy ambicioso pero créeme es mucho
D
Llevo 30 años estudiando la vida
E
Que no hay mal que por bien no venga?
Eso es mentira

A
Me centrare en lo importante
F#m
En mi familia mis amigos mi pasión por el arte
D
Aceptare que tengo derecho a estar de bajón
De vez en cuando
E
Porque estar de bajón es humano

A
No pienso rendirme ante ningún problema
F#m
Confío en mi soy capaza de vencer lo que sea
D
Volveré a caer millones de veces
E
Peor siempre volveré a erguirme
D
Porque me di cuenta de que ja
Oh si amigo me di cuenta de que



[Chorus]

          A               F#m              D5                 E
E|------------------|------------------|------------------|------------------|
B|-----0--0---0--0--|-----2--2---2--2--|------------------|-----0--0---0--0--|
G|-----6--6---6--6--|-----4--4---4--4--|------------------|-----1--1---1--1--|
D|------------------|------------------|-----6--6---6--6--|------------------|
A|------------------|------------------|-----7--7---7--7--|------------------|
E|--5--5--5---5--5--|--2--2--2---2--2--|--5--5--5---5--5--|--0--0--0---0--0--|



A
Quizás la clave para ser realmente libre
     F#m
Sea reír cuando puedas y llorar cuando lo necesites
D
Ser honesto con uno mismo
E
Centrarse en lo importante y olvidarse del ruido


A
Quizás la clave para ser realmente libre
     F#m
Sea reír cuando puedas y llorar cuando lo necesites
D
No cegarse con los objetivos
E
Tratar de relajarse y vivir algo mas tranquilo
Outros vídeos desta música
    8 exibições
      • ½ Tom
      • A
      • Bb
      • B
      • C
      • Db
      • D
      • Eb
      • E
      • F
      • F#
      • G
      • Ab
    • Adicionar à lista

    Afinação da cifra

    Afinador online

      0 comentários

      Ver todos os comentários

      Entre para o Cifra Club PRO

      Tenha acesso a benefícios exclusivos no App e no Site

      • Chega de anúncios

      • Badges exclusivas

      • Mais recursos no app do Afinador

      • Atendimento Prioritário

      • Aumente seu limite de lista

      • Ajude a produzir mais conteúdo

      Cifra Club Pro

      Aproveite o Cifra Club com benefícios exclusivos e sem anúncios
      Cifra Club Pro
      Aproveite o Cifra Club com benefícios exclusivos e sem anúncios
      Ops (: Contenido disponible sólo en portugués.
      OK