Cifra Club

Vasos Quebrados

Elaine Martins

Cifra: Principal (violão e guitarra)
Selo Cifra Club: esta cifra foi revisada para atender aos critérios oficiais da nossa Equipe de Qualidade.
tom: Dm
[Intro] Gb  G  F  C  Gb  G  F  F7       
        F  Eb/G  Ab  Bbm7  Ab/C
        D  C   Bb  Ab  C  Bb  Ab  G  F  E  Fm7

E|---------------------------------------------------|
B|--14-13-14-14b16---14-13---------13----------------|
G|-------------------------15-13------15-13-12-------|
D|---------------------------------------------13-15-|
A|---------------------------------------------------|
E|---------------------------------------------------|

Fm7
Eu já vi os meus vasos transbordando de poder
Db9
E gigantes, vi caírem ao som de suas orações
Ab9
Batalhas foram travadas o inimigo destruído
Eb                     C7
E hoje o que restou, pedaços pelo chão

Fm7
Daqui de cima eu vejo o amor se esfriou
Db9
O engano e a mentira, dentro dos templos já entrou
Ab9
Orgulho e a vaidade já tomaram os corações
Eb                             C7
Daqueles que eram vasos cheios da minha unção

Fm7
Errado virou certo, e o certo é errado
Db9
Amantes de si mesmo que se entregaram ao pecado
Ab9
Distorcem a verdade, com suas próprias teorias
Eb                           C7
Pregando o que é errado, ensinando heresias

Fm7
Mas vai chegar a hora e eu vou me apresentar
Db9
E aqueles que enganam, a máscara, vou arrancar

Ab9
Eu hoje sou o amor, estou aqui pra perdoar
C7                            
Mas brevemente a coisa vai mudar
                Db  Eb  Fm  Eb  Db  Eb
E eu virei para julgar

Fm7                      Db9
Acorda igreja, eu estou às portas
Ab7M                  Eb        C7
Como o relâmpago, eu vou voltar           
Fm7                       Db9
Desperta, igreja, conserta o teu altar
Ab9                             C7
Ouça o que o espírito de deus está a falar

[Solo] Gb  G  F  C  Gb  G  F 
       Gb  G  F  C  Gb  G  F 

       F  Ab  Bb  C  Db  C  Bb  C  Db  Eb
       Db  Eb  F  Db  C  B  C  C  Db  C
       C  Db  C  Bb  Ab  F  C  Db  Bb  C  Ab  E  Fm7

E|---------------------------------------------------|
B|-----------------------------------13-12-----------|
G|------3-5-5h6-5-3--5-6-8---8-10----------15--------|
D|--3-6--------------------6-------------------------|
A|---------------------------------------------------|
E|---------------------------------------------------|

E|-10---------13----------16---------18b20-----------|
B|---12-9-12----15-12-15----18-15-18-----------------|
G|---------------------------------------------------|
D|---------------------------------------------------|
A|---------------------------------------------------|
E|---------------------------------------------------|

E|---------------------------------------------------|
B|-13-14-13\--13-14-13-----------13-14-11-13--8------|
G|---------------------15-13--------------------8-10-|
D|---------------------------15----------------------|
A|---------------------------------------------------|
E|---------------------------------------------------|

Fm7
Errado virou certo, e o certo é errado
Db/F
Amantes de si mesmo que se entregaram ao pecado
Ab/Eb
Distorcem a verdade, com suas próprias teorias
Eb9                           C7
Pregando o que é errado, ensinando heresias

Fm7
Mas vai chegar a hora e eu vou me apresentar
Db/F
E aqueles que enganam, a máscara, vou arrancar

Ab/Eb
Eu hoje sou o amor, estou aqui pra perdoar
Eb9                        C7    
Mas brevemente a coisa vai mudar
                Db   C7
E eu virei para julgar

Fm7                      Db9
Acorda igreja, eu estou às portas
Ab9                  Eb        C7
Como o relâmpago, eu vou voltar               2x
Fm7                       Db9
Desperta, igreja, conserta o teu altar
Ab9                             C7
Ouça o que o espírito de deus está a falar

[Solo] Db C  Db  Bb  Ab  G  F  Fm7
00:00 / 00:00
Outros vídeos desta música
Repetir
Outros vídeos desta música
28.789 exibições
    • ½ Tom
    • Am
    • Bbm
    • Bm
    • Cm
    • C#m
    • Dm
    • Ebm
    • Em
    • Fm
    • F#m
    • Gm
    • G#m
  • Adicionar à lista

Afinação da cifra

Afinador online

    0 comentários

    Ver todos os comentários

    Entre para o Cifra Club PRO

    Tenha acesso a benefícios exclusivos no App e no Site

    • Chega de anúncios

    • Mais recursos no app do Afinador

    • Atendimento Prioritário

    • Aumente seu limite de lista

    • Ajude a produzir mais conteúdo

    00:00 / 00:00

    Cifra Club Pro

    Aproveite o Cifra Club com benefícios exclusivos e sem anúncios
    Cifra Club Pro
    Aproveite o Cifra Club com benefícios exclusivos e sem anúncios
    OK