Cifra Club

Por Tí

Ella Baila Sola

Cifra: Principal (violão e guitarra)
Selo Cifra Club: esta cifra foi revisada para atender aos critérios oficiais da nossa Equipe de Qualidade.
tom: C
E|-3-3-3-3-3-3-3--1-0-1----------------------------|
B|-------------------------------------------------|
G|-------------------------------------------------|
D|-------------------------------------------------|
A|-------------------------------------------------|
E|-------------------------------------------------|

Ser tu red para cuando caigas...

E|------------0-------------------------------------|
B|-1-1-1-1--3---3-1-3-------------------------------|
G|-------------------------------------------------|
D|-------------------------------------------------|
A|-------------------------------------------------|
E|-------------------------------------------------|

Cogerte de la man al andar..

E|----------0-3-0-3------------------------------------|
B|-------1------------------------------------------|
G|-2-2-2--------------------------------------------|
D|-----------------------------------------------|
A|------------------------------------------------|
E|-------------------------------------------------|


SE D PITE LO E SMO EN A  BG . ESTROF , EL CORO VA A B :

Por ti mi vida empeño,por un momento de verte sonreir..

E|--0-0--3-3-0---------5-1-0------1-0---0--------------------|
B|--------------3-1-1---------3-3-----3---1--------------|
G|------------------------------------------------|
D|--------------------------------------------------|
A|--------------------------------------------------|

E|-0-0-3-3-0--------1-0---1-0-0-------0-1-0----------------------|
B|------------3-1-1-----1-------3-1-3-------3-0-1-------------|
G|--------------------------------------------------|
D|--------------------------------------------------|
A|---------------------------------------------------|
E|--------------------------------------------------|
E|---------------------------------------------------|

SE D PITE TOC  EL RATO LO E SMO AL FINAL A  GALA  D PITE VARIAS VECES 'POR TI E  VIDA EMPEÑOOOO'
ESO LO PUEDEN HACER AB 

e|-6-6-8/9-6-4-6-2--------------------------------|
Outros vídeos desta música
    165 exibições
      • ½ Tom
      • A
      • Bb
      • B
      • C
      • Db
      • D
      • Eb
      • E
      • F
      • F#
      • G
      • Ab
    • Adicionar à lista

    Afinação da cifra

    Afinador online

      0 comentários

      Ver todos os comentários

      Entre para o Cifra Club PRO

      Tenha acesso a benefícios exclusivos no App e no Site

      • Chega de anúncios

      • Badges exclusivas

      • Mais recursos no app do Afinador

      • Atendimento Prioritário

      • Aumente seu limite de lista

      • Ajude a produzir mais conteúdo

      Cifra Club Pro

      Aproveite o Cifra Club com benefícios exclusivos e sem anúncios
      Cifra Club Pro
      Aproveite o Cifra Club com benefícios exclusivos e sem anúncios
      OK