Cifra Club

La Vida És Molt Avorrida Sense El Teu Cos

Els Pets

Cifra: Principal (violão e guitarra)
Selo Cifra Club: esta cifra foi revisada para atender aos critérios oficiais da nossa Equipe de Qualidade.
tom: A
E|-------------|
B|-3-2-0-------|
G|-------2-1---|
D|-------------|
A|-------------|
E|-------------|

  D               E                A
E|---------------|----------------|----------------|-------0---------|
B|-----2------2--|-----2-------2--|-----2-------2--|-----2---3-2-0---|
G|---2---2--2---2|---2---2---2---2|---2---2---2---2|---2-----------2-|
D|-0------0------|-2-------2------|----------------|-----------------|
A|---------------|----------------|-0-------0------|-0---------------|
E|---------------|----------------|----------------|-----------------|

  D               E                A
E|---------------|----------------|----------------|-----------------|
B|-----2------2--|-----2-------2--|-----2-------2--|-------------0---|
G|---2---2--2---2|---2---2---2---2|---2---2---2---2|-----2---------2-|
D|-0------0------|-2-------2------|----------------|---2---2---2-----|
A|---------------|----------------|-0-------0------|-0-------0-------|
E|---------------|----------------|----------------|-----------------|


[Verse 1]
D                E           A      A
  Plats de tres dies per rentar,
D            E           A      A
  nits d’amanides per sopar.
D               E
  Hauria de dormir però
 F#m     C#m
avui les hores
      F#m    C#m
poc a poc perforen
         Bm           D             E
aquest llit ple de racons per escalfar.

D            E               A      A
  Matins de març dalt el terrat,
D            E            A      A
  robant la Wi-Fi del veïnat,
D             E
  omplint el mòbil amb
 F#m C#m
emoticones
       F#m     C#m
per passar l’estona,
           Bm                   D              E
sembla estrany que amb tant de temps t’enyori tant.

[Chorus]
               D
I ara són les dotze i dinou,
   E
i sé que no són
   Asus2           F#m
pas hores de despertar-te,
         D                E
però la vida és molt avorrida
              A
sense el teu cos.

[Riff]
D E A A
D E A A


[Verse 2]
D             E             A      A
  Sóc al control i se’m fa tard,
D                  E           A      A
  crec que ara em volen registrar,
D                 E
  no entenc per què he pitat,
  F#m     C#m
seran les botes,
            F#m   C#m
però aviat tanquen portes
         Bm              D        E
i aquí estic braços en creu i descalçat.

[Chorus]
               D
I ara són les dotze i dinou,
   E
i sé que no són
   Asus2          F#m
pas hores de despertar-te,
         D                E
però la vida és molt avorrida
              A
sense el teu cos.

               D
I ara són les dotze i dinou,
     E
i a fora ara plou
    Asus2        F#m
però només volia dir-te
        D                E
que la vida és molt avorrida
              A
sense el teu cos.

[Riff]
D E A A
D E A A
Outros vídeos desta música
    318 exibições
      • ½ Tom
      • A
      • Bb
      • B
      • C
      • Db
      • D
      • Eb
      • E
      • F
      • F#
      • G
      • Ab
    • Adicionar à lista

    Afinação da cifra

    Afinador online

      0 comentários

      Ver todos os comentários

      Conseguiu tocar?

      0Tocaram0Ainda não

      Grave um vídeo tocando La Vida És Molt Avorrida Sense El Teu Cos e nos envie!

      Toque também

      1. Imagem do artista Sopa De CabraL' Empordà Sopa De Cabra
      2. Imagem do artista SauBoig Per Tu Sau
      3. Imagem do artista Lax'n'BustoLlençat Lax'n'Busto
      4. Imagem do artista GossosCorren Gossos

      Entre para o Cifra Club PRO

      Tenha acesso a benefícios exclusivos no App e no Site

      • Chega de anúncios

      • Badges exclusivas

      • Mais recursos no app do Afinador

      • Atendimento Prioritário

      • Aumente seu limite de lista

      • Ajude a produzir mais conteúdo

      Cifra Club Pro

      Aproveite o Cifra Club com benefícios exclusivos e sem anúncios
      Cifra Club Pro
      Aproveite o Cifra Club com benefícios exclusivos e sem anúncios
      Ops (: Contenido disponible sólo en portugués.
      OK