Cifra Club

Sweet Caroline

Elvis Presley

Cifra: Principal (violão e guitarra)
tom: B
[Intro]

    E|------------------------------------------------------------------|
    B|------------------------------------------------------------------|
    G|------------------------------------------------------------------|
    D|-----------------------------------6--8--9-----8-6-8-9-8-6--9-8-6-|
    A|--4--6--7-----6-4-6-7-6-4--7-6-4----------------------------------|
    E|------------------------------------------------------------------|

    E|--------------------------------11-----9--------------------------|
    B|------------------------------------------------------------------|
    G|--6--8--9-----8-6-8-9-----8-----11-----9--------------------------|
    D|------------------------------------------------------------------|
    A|------------------------------------------------------------------|
    E|------------------------------------------------------------------|

[Riff 1]

    E|------------------------------------------------|
    B|------7-------5-------4-------2-----------------|
    G|------------------------------------------------|
    D|--/8-----8\6-----6\4-----4\2--------------------|
    A|------------------------------------------------|
    E|------------------------------------------------|


[Riff 2]

    E|--12--11--------------------------|
    B|----------9-----------------------|
    G|----------------------------------|
    D|----------------------------------|
    A|----------------------------------|
    E|----------------------------------|



   B                E
    Where it began, I can't begin to know when
   B                                F#    [Riff 1]
    But then I know it's growing strong
   B                        E
    Oh, was in the spring, Ooooo
   E
    And spring became the summer
   B                         F#    [Riff 1]
    Who'd believe you'd come along

     B      G#m             F#
    Hands, touching hands, reaching out
     E                F#
    Touching me, touching you
          B        E   [Riff 2]
    Oh, sweet Caroline
                              F#   [Riff 1]
    Good times never seem so good
        B         E   [Riff 2]              F#  [Riff 1]
    Oh, I've been inclined to believe it never would, and now I

   B
    I look at the night, Oooooo
   E
    And it don't seem so lonely
   B                         F#     [Riff 1]
    We fill it up with only two, oh
   B
    And when I hurt
   E
    Hurting runs off my shoulder
   B                             F#  [Riff 1)
    How can I hurt when holding you

        B             G#m           F#
    Oh, one, touching one, reaching out
     E                     F#
    Touching me, touching you
          B        E   [Riff 2]
    Oh, sweet Caroline
                              F#   [Riff 1]
    Good times never seem so good
        B         E   [Riff 2]            F#    [Riff 1]
    Oh, I've been inclined to believe it never would
          B        E    [Riff 2]                 F#   [Riff 1]
    Oh, sweet Caroline,good times never seem so good
        B         E   [Riff 2]              F#  [Riff 1]
    Oh, I've been inclined to believe it never
Composição de Neil Diamond
Colaboração e revisão:
51.226 exibições
    • ½ Tom
    • A
    • Bb
    • B
    • C
    • Db
    • D
    • Eb
    • E
    • F
    • F#
    • G
    • Ab
  • Adicionar à lista

    0 comentários

    Ver todos os comentários

    Conseguiu tocar?

    5 Tocaram 0 Ainda não

    Grave um vídeo tocando Sweet Caroline e nos envie!

    00:00 / 00:00
    Outros vídeos desta música
    Repetir Qualidade Automático
    Outros vídeos desta música
    00:00 / 00:00
    Automático

    Cifra Club Pro

    Aproveite o Cifra Club com benefícios exclusivos e sem anúncios
    Cifra Club Pro
    Aproveite o Cifra Club com benefícios exclusivos e sem anúncios
    OK