Cifra Club

Aprenda

Blue Suede Shoes

Elvis Presley

Cifra: Principal (violão e guitarra)
tom: A
[Primeira Parte]

Well it's a one for the money
A
  Two for the show
A
  Three to get ready now go, cat ,go

[Refrão]

           D7(9)
But don't you step on my blue suede
      A9
Shoes
             E7(9)
You can do anything
                                   A9
But lay off of my blue suede shoes

[Primeira Parte - Variação Letra]

                           A
Well you can knock me down
                A
Step in my face
                                   A
Slander my name all over the place
                                    A
And do anything that you want to do

But ah ah, honey, lay off of them' shoes

[Refrão]

           D7(9)
And don't you step on my blue suede
      A9
Shoes
             E7(9)
You can do anything
                                   A9
But lay off of my blue suede shoes

Let's go, cat!

[Solo 1]

[Tab - Solo 1]

Parte 1 de 7
E|----------------------------------------------------|
B|-9/10--10--10--10--10--10--10--10-------------------|
G|-8/9---9---9---9---9---9---9---9--------------------|
D|----------------------------------------------------|
A|----------------------------------------------------|
E|----------------------------------------------------|

Parte 2 de 7
E|----------------------------------------------------|
B|-9/10--10--10--10-9/10--10--10--10--10--------------|
G|-8/9---9---9---9--8/9---9---9---9---9---------------|
D|----------------------------------------------------|
A|----------------------------------------------------|
E|----------------------------------------------------|

Parte 3 de 7
E|-8b-5-----------------------------------------------|
B|------8--7-5----------------------------------------|
G|-------------7--5-6--------5------------------------|
D|--------------------7--6-7--------------------------|
A|----------------------------------------------------|
E|----------------------------------------------------|

Parte 4 de 7
E|-----5----------------------------------------------|
B|---7---8-7-5-----5----5-----5-----------------------|
G|-7-------------7----7-----7---5---------------------|
D|----------------------------------------------------|
A|----------------------------------------------------|
E|----------------------------------------------------|

Parte 5 de 7
E|---------------5------------------------------------|
B|-------------7---8-7----5---------------------------|
G|-------5-7------------7---5~------------------------|
D|-7-5-7----------------------------------------------|
A|----------------------------------------------------|
E|----------------------------------------------------|

Parte 6 de 7
E|----------------------------------------------------|
B|-------5~-------5--------5--------------------------|
G|-7-5-7----7p5-----7p5------7p5----------------------|
D|----------------------7--------7--------------------|
A|----------------------------------------------------|
E|----------------------------------------------------|

Parte 7 de 7
E|-5--------------------------------------------------|
B|---8/10~--13-10------5------------------------------|
G|----------------12~----5----------------------------|
D|-------------------------7~--5-7--------------------|
A|----------------------------------------------------|
E|----------------------------------------------------|

Ah! Walk the dog!

[Primeira Parte - Variação Letra]

                           A
Well you can burn my house
             A
Steal my car
                                      A
Drink my liquor from an old fruit jar
                                    A
And do anything that you want to do
                                      A
But ah ah, honey, lay off of my shoes

[Refrão]

           D7(9)
And don't you step on my blue suede
      A9
Shoes
             E7(9)
You can do anything but lay off of my
                 A9
Blue suede shoes

Rock it!

[Solo 2]

[Tab - Solo 2]

Parte 1 de 4
E|-0----0--------0--0----8\---------------------------|
B|-10\--10\---10-10-10---8\---------------------------|
G|-9-\--9-\---9--9--9---------------------------------|
D|----------------------------------------------------|
A|----------------------------------------------------|
E|----------------------------------------------------|

E|-0----0--------0--0----8\---------------------------|
B|-10\--10\---10-10-10---8\---------------------------|
G|-9-\--9-\---9--9--9---------------------------------|
D|----------------------------------------------------|
A|----------------------------------------------------|
E|----------------------------------------------------|

Parte 2 de 4
E|-5-----8-5------------------------------------------|
B|-8b10------8-7-5---5---------------5-7--------------|
G|-----------------7---5h6-------5-7------------------|
D|-------------------------7-6-7----------------------|
A|----------------------------------------------------|
E|----------------------------------------------------|

Parte 3 de 4
E|-5--------------------------------------------------|
B|---8-7-5---5----------------------------------------|
G|---------7---5h6-------5----------------------------|
D|-----------------7-5-7---7--------------------------|
A|----------------------------------------------------|
E|----------------------------------------------------|

Parte 4 de 4
E|----------------------------5--------8--------------|
B|-----------5------------5-7---8/10~--8-10-8---5-----|
G|-------5-7---7-5----5-7---------------------9-5h6---|
D|---5-7------------7-------------------------------7\|
A|-7--------------------------------------------------|
E|----------------------------------------------------|

[Primeira Parte - Variação Letra]

Well it's a one for the money
A
  Two for the show
A
  Three to get ready now go, go ,go

[Refrão]

           D7(9)
But don't you step on my blue suede
      A9
Shoes
             E7(9)
You can do anything
                                   A9
But lay off of my blue suede shoes

[Final]
   
       A
It`s blue blue, blue suede shoes

blue blue, blue suede shoes, yeah
D7(9)
      blue blue, blue suede shoes, baby
A9              A
   Blue blue, blue suede shoes
                   E7(9)
Well, you can do anything
                                   A
But lay off of my blue suede shoes

[Solo Final]

[Tab - Solo Final]
                      A
E|-8-5----------------5---------------------|
B|-----8-5-7-5--------5---------------------|
G|-------------5------6---------------------|
D|---------------7-5--7---------------------|
A|--------------------0---------------------|
E|------------------------------------------|
Composição de Carl Perkins
Colaboração e revisão:
  • Gustavo Cunha
  • Fernando Reis
  • francisco fernando
225.161 exibições
    • ½ Tom
    • A
    • Bb
    • B
    • C
    • Db
    • D
    • Eb
    • E
    • F
    • F#
    • G
    • Ab
  • Adicionar à lista

    0 comentários

    Ver todos os comentários
    00:00 / 00:00
    Outros vídeos desta música
    Repetir Qualidade Automático
    Outros vídeos desta música
    00:00 / 00:00
    Automático
    Capítulos
    • Tocando a música
    • Dicas iniciais / Equipamentos
    • Acordes da música
    • Tocando Primeira Parte e Refrão
    • Ensinando ritmo da música
    • Tocando Solo 1
    • Ensinando Solo 1
    • Tocando Solo 2
    • Ensinando Solo 2
    • Tocando Final
    • Ensinando ritmo (Variação)
    • Ensinando Solo Final (Sugestão)
    • Encerramento
    • Ficha técnica

    Cifra Club Pro

    Aproveite o Cifra Club com benefícios exclusivos e sem anúncios
    Cifra Club Pro
    Aproveite o Cifra Club com benefícios exclusivos e sem anúncios
    OK