Cifra Club

Ella Baila Sola (part. Peso Pluma)

Eslabon Armado

Cifra: Principal (violão e guitarra)
Selo Cifra Club: esta cifra foi revisada para atender aos critérios oficiais da nossa Equipe de Qualidade.
tom: Ab
[Solo Intro] Eb  D  Db 
             Db  Eb  C7  Fm  Eb/G
             Db  Eb  C7  Fm  Eb/G

[Tab - Solo Intro]

E|------------------------------------------|
B|------------------------------------------|
G|------------------------------------------|
D|------------------------------------------|
A|------------1-3--1-3-1--------------------|
E|-1--0-1-3-4------------4--3-2-1-----------|

E|------------------------------------------|
B|------------------------------------------|
G|-5-1--1-1/5-5-5---5---5/6-3--3-3/6-6-6----|
D|-6-3--3-3/6-6-6---6---6/8-5--5-5/8-8-8----|
A|----------------8---8---------------------|
E|------------------------------------------|

E|------------------------------------------|
B|------------------------------------------|
G|-5-6-5------------------------------------|
D|-6-8-6------------------------------------|
A|------------------------------------------|
E|------------------------------------------|

E|------------------------------------------|
B|------------------------------------------|
G|---6------8------3-----5------------------| (2x)
D|-8---8-10---10-5---5-6---6----------------|
A|------------------------------------------|
E|------------------------------------------|

E|-8-4h6p4--4-4/8-8-8----8----8/9---9h11p9--|
B|-9-6------6-6/9-9-9----9----9/11--11------|
G|--------------------10---10---------------|
D|------------------------------------------|
A|------------------------------------------|
E|------------------------------------------|

E|-6-6/9--9--9--9---8-9--8------------------|
B|-8-8/11-11-11-11--9-11-9------------------|
G|------------------------------------------|
D|------------------------------------------|
A|------------------------------------------|
E|------------------------------------------|

E|----9-------11------6-----8---------------|
B|-11---11-13----13-8---8-9---9-------------|
G|------------------------------------------|
D|------------------------------------------|
A|------------------------------------------|
E|------------------------------------------|

E|----9-------11--4p3-----------------------|
B|-11---11-13---------4---------------------|
G|----------------------5-3-1-0-------------|
D|------------------------------3-1---------|
A|----------------------------------4-------|
E|------------------------------------------|

[Primeira Parte]

 Db                        Eb
Compa, ¿qué le parece esa morra?
 C7                   Fm          Eb/G
La que anda bailando sola, me gusta pa' mí
 Db                         Eb
Bella, ella sabe que está buena
  C7               Fm        Eb/G
Que todos andan mirándola cómo baila

     Db                      Eb
Me acerco y le tiro todo un verbo
 C7                 Fm          Eb/G
Tomamos tragos sin peros, solo tentación
    Db  Eb            C7          Fm
Le dije:   Voy a conquistar tu familia
                              Eb/G      
Que, en unos días, vas a ser mía
    Db  Eb                C7            Fm
Me dijo    que estoy muy loco, pero le gusta
                             Eb/G  
Que ningún vato, como yo, actúa

( Db  Eb  C7  Fm  Eb/G )
( Db  Eb  C7  Fm  Eb/G )

[Segunda Parte]

 Db                       Eb
No soy un vato que tiene varo
 C7                  Fm            Eb/G
Pero hablando del corazón, te cumplo todo
     Db                   Eb
Me agarró pegadito de su mano
 C7                 Fm             Eb/G
Mi compa ni se la creyó, que al pasar fui yo
     Db  Eb            C7                  Fm
Su cuer_po, juro por Dios, que era tan perfecta
                     Eb/G    
Su cinturita como modelo

    Db  Eb            C7               Fm
Sus o__jos desde el principio me enamoraron
                           Eb/G  
A ella le gusto y a mí me gusta

[Final] Db  Eb  C7  Fm  Eb/G
        Db  Eb  C7  Fm  Eb/G
        Db  Eb  C7  Fm  Eb/G  Db
00:00 / 00:00
Outros vídeos desta música
Repetir
Outros vídeos desta música
47.572 exibições
  • Simplificar cifra
    • ½ Tom
    • A
    • Bb
    • B
    • C
    • Db
    • D
    • Eb
    • E
    • F
    • F#
    • G
    • Ab
  • Adicionar à lista

Afinação da cifra

Afinador online

    0 comentários

    Ver todos os comentários

    Entre para o Cifra Club PRO

    Tenha acesso a benefícios exclusivos no App e no Site

    • Chega de anúncios

    • Mais recursos no app do Afinador

    • Atendimento Prioritário

    • Aumente seu limite de lista

    • Ajude a produzir mais conteúdo

    00:00 / 00:00

    Cifra Club Pro

    Aproveite o Cifra Club com benefícios exclusivos e sem anúncios
    Cifra Club Pro
    Aproveite o Cifra Club com benefícios exclusivos e sem anúncios
    OK