Cifra Club

Only Love Can Break Your Heart

Everlast

Cifra: Principal (violão e guitarra)
tom: C
   Album: Big Daddy Soundtrack (?)

   Submitted by Steve D (*)
   ------------------------------------------------------------------------------
   ---------------


   [Intro]
   D G A A7 D G A A7 
   D G A A7 D G A A7


   [Verse]
   D G A
   When you were young and on your own
   D G A
   How did it feel to be alone?

   D G
   I was always thinking of games that I was playing
   D G
   Trying to make the best of my time


   [Chorus]
   A G A
   But only love can break your heart
   G/E G A 
   Try to be sure right from the start
   G A 
   Yes only love can break your heart
   G/E G A
   And if your world should fall apart


   [Solo]
   D G A A7 D G A A7
   G A G A


   [Verse]
   D G A
   I have a friend I've never seen
   D G A
   He hides his head inside a dream
   D G 
   Someone should call him and see if he can come out
   D G
   Try to lose the down that he's found


   [Chorus]
   A G A
   But only love can break your heart
   G/E G A 
   Try to be sure right from the start
   G A 
   Yes only love can break your heart
   G/E G A
   And if your world should fall apart


   [Solo]
   D G A A7 D G A A7
   G A G A


   [Ending] 
   D G A A
   D G A



   Acoustic Guitar w/ echo effect

   E|--------------------------------------------------------------------|
   B|-----------------------------------------------3-------------------|
   G|------------4------------------------------------------------------|
   D|---------4-----4b5----r4----2--3--4--3-------3--4--2-------|
   A|--5--7-------------------------------------------------------------|
   E|--------------------------------------------------------------------|

   This is played during the Intro, the solos, and sometimes during the verses.

   I'm working on the slide guitar for the solos, I should be able to submit it 
   sometime pretty soon. That's it for now.

   -Steve-





00:00 / 00:00
Outros vídeos desta música
Repetir
Outros vídeos desta música
Compositor não encontrado.
658 exibições
    • ½ Tom
    • A
    • Bb
    • B
    • C
    • Db
    • D
    • Eb
    • E
    • F
    • F#
    • G
    • Ab
  • Adicionar à lista

    0 comentários

    Ver todos os comentários

    Conseguiu tocar?

    0 Tocaram 0 Ainda não

    Grave um vídeo tocando Only Love Can Break Your Heart e nos envie!

    00:00 / 00:00

    Cifra Club Pro

    Aproveite o Cifra Club com benefícios exclusivos e sem anúncios
    Cifra Club Pro
    Aproveite o Cifra Club com benefícios exclusivos e sem anúncios
    OK