Cifra Club

House Of Pain

Faster Pussycat

Cifra: Principal (violão e guitarra)
Selo Cifra Club: esta cifra foi revisada para atender aos critérios oficiais da nossa Equipe de Qualidade.
tom: C
E|------------0----------------------------------|--------------------------------|
B|---------1-----1--------3p1-----0-----1--------|--------------------------------|
G|------2--------------2----------------------0--|--------------------------------|
D|3-----------------3----------3-----------3-----|--------------------------------|
A|-----------------------------------------------|--------------------------------|
E|-----------------------------------------------|--------------------------------|

let ring- - - - - - - let ring- - - - - - - - -
E|----------0---------------------3-----------|-----------------------------------|
B|-------------1---------------------0--------|-----------------------------------|
G|-------2--------2------------0--------0-----|-----------------------------------|
D|----2--------------2------0--------------0--|-----------------------------------|
A|-0------------------------------------------|-----------------------------------|
E|-----------------------3--------------------|-----------------------------------|

E|1--------------------------------|----------------------------------------------|
B|1--------------------------------|----------------------------------------------|
G|2--------------------------------|----------------------------------------------|
D|3--------------------------------|----------------------------------------------|
A|---------------------------------|----------------------------------------------|
E|---------------------------------|----------------------------------------------|

0-----------0-------------------------------|-----------------------------------|
E|1-----------1-----------3p1-----0--1--------|-----------------------------------|
0-----------0----------------------------0--|-----------------------------------|
E|2-----------2----------------2--------2-----|-----------------------------------|
B|3-----------3-------------------------------|-----------------------------------|
G|--------------------------------------------|-----------------------------------|

E|------------0----------------------------------|--------------------------------|
B|---------1-----1--------3p1-----0-----1--------|--------------------------------|
G|------2--------------2----------------------0--|--------------------------------|
D|3-----------------3----------3-----------3-----|--------------------------------|
A|-----------------------------------------------|--------------------------------|
E|-----------------------------------------------|--------------------------------|

let ring- - - - - - - let ring- - - - - - - - -
E|----------0---------------------3-----------|-----------------------------------|
B|-------------1---------------------0--------|-----------------------------------|
G|-------2--------2------------0--------0-----|-----------------------------------|
D|----2--------------2------0--------------0--|-----------------------------------|
A|-0------------------------------------------|-----------------------------------|
E|-----------------------3--------------------|-----------------------------------|

         let ring- - - - - - - - - - - - - - - - - - - - -|
E|1---------1-------------------------------|-------------------------------------|
B|1---------1-------------------------------|-------------------------------------|
G|2---------2-----------3p2-----0-----2-----|-------------------------------------|
D|3---------3----------------3-----------3--|-------------------------------------|
A|------------------------------------------|-------------------------------------|
E|------------------------------------------|-------------------------------------|

This solo goes with Fig.1 and is done on harmonica first, then guitar.

     harmonica arranged for guitar
||-----------15---------------------15-----17--|--------------------------------|
||----15/17---------------------17-------------|--------------------------------|
||*--------------------------------------------|--------------------------------|
||*--------------------------------------------|--------------------------------|
||---------------------------------------------|--------------------------------|
||---------------------------------------------|--------------------------------|


                                              rake these notes
15~~~~~~~~~~~~--13-----12~~~~~~~~~--13---------12----------|--------------------|
E|---------------------------------------------------13------|--------------------|
B|-------------------------------------------------------12--|--------------------|
G|-----------------------------------------------------------|--------------------|
D|-----------------------------------------------------------|--------------------|
A|-----------------------------------------------------------|--------------------|

E|---------------------------------------17--|--20-|------------------------------|
B|--------------------------13---/17--20-----|-----|------------------------------|
G|---(12)~~~~~~~~~--12--14-------------------|-----|------------------------------|
D|-------------------------------------------|-----|------------------------------|
A|-------------------------------------------|-----|------------------------------|
E|-------------------------------------------|-----|------------------------------|

E|------------------13--12------|------------12--13--15--|------------------------|
B|--------13/17~~~----------13--|------------------------|------------------------|
12--14------------------------|--12~~~~~~--------------|------------------------|
E|------------------------------|------------------------|------------------------|
B|------------------------------|------------------------|------------------------|
G|------------------------------|------------------------|------------------------|


                                            (guitar does solo from now on)

15~~~~~~--17--15--13--12----------------------------------------|---------------|
E|--------------------------13------13~~~~~~----------------------|---------------|
B|------------------------------14--------------------------------|---------------|
G|----------------------------------------------------------------|---------------|
D|--------------------------------------------------------15--17--|---------------|
A|---------------------------------------------13--15/17----------|---------------|

E|E|----------------------|---------------------------------------------------------|
B|E|----------------------|---------------------------------------------------------|
G|E|----------------------|---------------------------------------------------------|
D|E|----------------------|---------------------------------------------------------|
15~~~~~~~~~~~~--------|---------------------------------------------------------|
E|----------------------|---------------------------------------------------------|

E|------------------------------------------------------|-------------------------|
B|------------------------------------------------------|-------------------------|
17--16p14------16p14----------------------------------|-------------------------|
E|-----------17---------17--15p14---------17-----15p14--|-------------------------|
B|---------------------------------15-------------------|-------------------------|
G|------------------------------------------------------|-------------------------|

E|--------------------------------------------------------------------------------|
B|--------------------------------------------------------------------------------|
G|------------------------------------------------17h-----------------------------|
15p14------------------------------------17h19----------------------------------|
E|-------15--------------(15)\------17h19-----------------------------------------|
B|----------------------------17h20-----------------------------------------------|

bend 19th fret up one step
E|--------------------------------------|-----------------------------------------|
B|-----20-------------------------------|-----------------------------------------|
G|-19-----19-----(19)p17--19p17--17~~~--|-----------------------------------------|
D|--------------------------------------|-----------------------------------------|
A|--------------------------------------|-----------------------------------------|
E|--------------------------------------|-----------------------------------------|

bend up one step
E|---------------20-(20)\-------------|-------------------------------------------|
B|-20---------------------------------|-------------------------------------------|
G|-----------------------------0h2p0--|-------------------------------------------|
D|------------------------------------|-------------------------------------------|
A|------------------------------------|-------------------------------------------|
E|------------------------------------|-------------------------------------------|


Fig.2  This section is all the chorus pieces.
~~~~~
                 let ring- - - - - - - - - - - - -
||----------------0-----0-----------------0-----|-------------------------------|
||----------------1--------------------3-----1--|-------------------------------|
||*---------------0-----------0-----------------|-------------------------------|
||*---------------2--------------2--------------|-------------------------------|
||---3------------3-----------------------------|-------------------------------|
||----------------------------------------------|-------------------------------|
     little past supper time                                               I'm

E|---------0--------------0--------------0--------|-------------------------------|
B|---------3--------------------3-----3-----------|-------------------------------|
G|---------0-----------------------0-----------0--|-------------------------------|
D|---------0--------------------------------------|-------------------------------|
A|2--------2--------------------------------------|-------------------------------|
E|E|------------------------------------------------|-------------------------------|
still out on the porch step sittin' on my

E|------------0--------0-----------------------0--|-------------------------------|
B|------------1--------------1--------------1-----|-------------------------------|
G|------------2-----------------2-----------------|-------------------------------|
D|------------2-----------------------------------|-------------------------------|
0-----------0-----------------------------------|-------------------------------|
E|------------------------------------------------|-------------------------------|
behind,                                                       waitin' for you

E|------------1----------------------------------|--------------------------------|
B|------------1----------------------------------|--------------------------------|
G|------------2-----------3p2-----0-----2--------|--------------------------------|
D|3-----------3----------------3-----------3--0--|--------------------------------|
A|-----------------------------------------------|--------------------------------|
E|-----------------------------------------------|--------------------------------|

Repeat Fig.1 again then goto Pre-chorus.


Pre-chorus.
~~~~~~~~~~~
E|---------3--------------------0--------|--1-----1-------------------------|-----|
B|------------0--------------------1-----|--1-----1-------------------------|-----|
G|------0--------0-----------2--------2--|--2-----2-----3p2-----0-----2-----|-----|
D|---0--------------------2--------------|--3-----3----------3-----------3--|-----|
A|------------------0--------------------|----------------------------------|-----|
E|3--------------------------------------|----------------------------------|-----|
Five years old and talking to myself...

E|------------0--------------------3--------|-------------------------------------|
B|---------------1--------------------0-----|-------------------------------------|
G|---------2--------2-----------0--------0--|-------------------------------------|
D|------2--------------------0--------------|-------------------------------------|
0-----------------------------------------|-------------------------------------|
E|------------------------3-----------------|-------------------------------------|
Where were you? etc.....

E|1--------1--------1--1-----1--1--1----------------------------------------------|
B|1--------1--------1--1-----1--1--1----------------------------------------------|
G|2--------2--------2--2-----2--2--2----------------------------------------------|
D|3--------3--------3--3-----3--3--3----------------------------------------------|
A|--------------------------------------------------------------------------------|
E|--------------------------------------------------------------------------------|


Chorus
~~~~~~
Guitar 2 doubles all of guitar 1 with power chord versions of the normal chords.

[C]                             [F]
I'm not tryin' to fake it, and I aint the one to blame, no there's no
[Am]     [G]             [F]
one home in my house of pain.

Main solo.
~~~~~~~~~~
     (Two gtrs.)
||----17---------------15---------------13---------------15---------------17----|
||----10-----17\15-----8------15\13-----6------13/15-----8------15/17-----10----|
||*----------9--7-------------7--5-------------5--7-------------7--9------------|
||*-----------------------------------------------------------------------------|
||------------------------------------------------------------------------------|
||------------------------------------------------------------------------------|


                        bend one step     bend both notes one step

E|---------------------|-------------------------------------------|--------------|
B|---17----------------|-------------20-----20---------------------|--------------|
G|---9------(9)/19--x--|---19---------------19-----17~~~~~~--17\---|--------------|
D|---------------------|-------------------------------------------|--------------|
A|---------------------|-------------------------------------------|--------------|
E|---------------------|-------------------------------------------|--------------|

E|---------------------------8h10p8\7--------|------------------------------------|
B|-------------------------------------8-----| /1----------------------------------|
G|---5h7p5\4-----5~~~~~~-----5-7--5-4--------|------------------------------------|
D|-------------------------------------5-----|-7----------------------------------|
A|-------------------------------------------|------------------------------------|
E|-------------------------------------------|------------------------------------|

                                  bend both notes one step
E|--------------8--------8h10p8------10-----------------(10)\---|-----------------|
/10-----------------------------------------------------------|-----------------|
E|--------------5--------5-7--5------7--------------------------| /1---------------|
B|-7------------------------------------------------------------|-----------------|
G|--------------------------------------------------------------|-----------------|
D|--------------------------------------------------------------|-----------------|

                 bend one step
E|-------------15----------------------------------------------|------------------|
B|-----12--13-------13-----12------12--13--------10------------|------------------|
/14--------------------------14----------12\9------12--9h12--|------------------|
E|-------------------------------------------------------------|------------------|
B|-------------------------------------------------------------|------------------|
G|-------------------------------------------------------------|------------------|

bend one step   slowly bend one step
E|---------------------------------------------------------------|----------------|
B|----------------------------------(12)~~~--------(12)\---------|----------------|
G|-12------------12----------------------------------------------|----------------|
D|---------------------------------------------------------------|----------------|
A|---------------------------------------------------------------|----------------|
E|---------------------------------------------------------------|----------------|

12p10\8--10p8\7--8p7\5--7p5\3--5p3-----3-------------|--------------------------|
E|------------------------------------5-----5p3--3--5--|--------------------------|
B|-----------------------------------------------------|--------------------------|
G|-----------------------------------------------------|--------------------------|
D|-----------------------------------------------------|--------------------------|
A|-----------------------------------------------------|--------------------------|

     bend one step                bend one step  bend one step
E|---------------5-------8p5-----5---------------------------|--------------------|
(5)---------5-----8p5-------8------------5--8p5---7--------|--------------------|
E|------7----------------------------7-----------------------|--------------------|
B|-----------------------------------------------------------|--------------------|
G|-----------------------------------------------------------|--------------------|
D|-----------------------------------------------------------|--------------------|

The song ends with one guitar playing this outro.
     Outro
||----1----------------------------|--------------0-----------|--0--|-----------|
||----1----------------------------|-----------1-----1--------|--1--|-----------|
||*---2--------------2h3--2--0-----|--------0-----------0-----|--0--|-----------|
||*---3-------------------------0--|-----2-----------------2--|--2--|-----------|
||---------------------------------|--3-----------------------|--3--|-----------|
||---------------------------------|--------------------------|-----|-----------|


The Words go :

It's a little past supper time
I'm still out on the porch step sittin' on my behind,
Waiting for you.
Wondrin' if everything's alright,
Moma said,"Come in boy, don't waste your time,"
I said,"I've got time. Well he'll be here soon."
Five years old and talkin' to myself.
Where were you? Where'd ya go? Daddy can't you tell?

Chorus.
~~~~~~~
I'm not tryin' to fake it, and I ain't the one to blame.
No, there's no one home in my house of pain.
I didn't write these pages and my script's been re-arranged.
No, there's no one home in my house of pain.

Wasn't I worth the time?
A boy needs a daddy like a dance to mime and all the time,
Ilooked up to you.
I paced my room a million times.
And all I ever got was one big line, the same old lie.
How could you?
Well I was eighteen and still talkin' to myself.
Where were you? Where'd ya go? Daddy can't ya tell?

================================================================================
==                           TABA TUD  EXPA NATION                            ==
================================================================================

E|----------| ----------|
B|----5h8---| Hammeron                   ----(8)---| Ghost Note
G|----------| ----------|
D|----5p8---| Pulloff                    ----------|

E|----------| ----------|
B|----5/8---| Slide Up                   -----x----| Dead Note
G|----------| ----------|
D|----5\8---| Slide Down                 ----------|

E|----------| ||------|| Repeat Start & End
B|----5~~~--| Vibrato                    ||*----*||
G|----------| ||*----*||
D|----------| ||------||

Rhythm:
  w = whole note            W = dotted whole
  h = half note             H = dotted half
  q = quarter note          Q = dotted quarter
  e = eighth note           E = dotted eighth
  s = sixteenth note        S = dotted sixteenth
  ^ = triplet

================================================================================
==           Created with a shareware version of the BUCKET 'O TAB            ==
==                  tablature creation software for Windows                   ==
==                           For more information:                            ==
==      US Mail: The Bucket, 3176-B5 Summit Square Dr., Oakton, VA 22124      ==
================================================================================
Outros vídeos desta música
    330 exibições
      • ½ Tom
      • A
      • Bb
      • B
      • C
      • Db
      • D
      • Eb
      • E
      • F
      • F#
      • G
      • Ab
    • Adicionar à lista

    Afinação da cifra

    Afinador online

      0 comentários

      Ver todos os comentários

      Entre para o Cifra Club PRO

      Tenha acesso a benefícios exclusivos no App e no Site

      • Chega de anúncios

      • Badges exclusivas

      • Mais recursos no app do Afinador

      • Atendimento Prioritário

      • Aumente seu limite de lista

      • Ajude a produzir mais conteúdo

      Cifra Club Pro

      Aproveite o Cifra Club com benefícios exclusivos e sem anúncios
      Cifra Club Pro
      Aproveite o Cifra Club com benefícios exclusivos e sem anúncios
      OK