Cifra Club

Le Mal de Toi

François Feldman

Cifra: Principal (violão e guitarra)
Selo Cifra Club: esta cifra foi revisada para atender aos critérios oficiais da nossa Equipe de Qualidade.
tom: A
G#m          C#m
Y a plus de soleil
F#          B
Quand j'me réveille,
E      C#m
Matin chagrin
Eb7                G#m
Quand j'ai le mal de toi
G#m      C#m
Cassé la nuit,
F#      B
Le jour ausi
E          C#m
Plus faim, pas bien
Eb7                G#m
Quand j'ai le mal de toi

Refrão:
                      G#m
Mais quand j'ai le mal de toi,
                    C#m
Je raconte n'importe quoi
                   F#
Que tu n'me manques pas,
               B
Que j't'attends pas,
            E
Que j'ai des ailes,
        C#m
Une vie nouvelle.
       Eb7
Sourire devant,
         Bm6/E
Souffrir dedans
               Eb7
J'peux mentir comme ça
                 G#m
Quand j'ai le mal de toi.

2°Parte:
G#m         C#m
Ton pull sur moi
F#            B
Me donne moins froid,
E           C#m
Parfum qui r'vient
Eb7                G#m
Quand j'ai le mal de toi
G#m         C#m
T'écrire une lettre,
F#       B
Partir peut-être
E            C#m
Mourir, c'est rien
Eb7                G#m
Quand j'ai le mal de toi

~(REPETE O REFRÃO)~
G#m                C#m
Et puis l'espoir, j'suis sûr de t'voir,
F#                          B
Demain, ce soir ou bien plus tard
E                 C#m
Je n'veux plus croire qu'on nous sépare
Eb7                 G#m
Quand j'ai le mal de toi.
G#m               C#m
Ça y est t'es là, j'entends ta voix
F#                  B
J'ai l'cœur qui bat, tu cours vers moi
E                     C#m
T'es dans mes bras... J'délire comme ça
Eb7                G#m
Quand j'ai le mal de toi.

 (SOLO)

E|------------------------------------------------------------------------------------------------------------------------------
B|------------------------------------------------------------------------------------------------------------------------------
G|-----6--8-8/9--9------------------6--8-8/9--9-----------------6--8-8/9--8--6--4-----------------------------------------------
D|-/6-------------------/6-6~----/6--------------------/6-7~----/7--------------------------------------------------------------
A|------------------------------------------------------------------------------------------------------------------------------
E|------------------------------------------------------------------------------------------------------------------------------

E|------------7--2--2h4~-----4--4--4/5--4--4--0----4--4--2-0--0h2~--2--2-2h4--2-2~----------------------------------------------
B|------------------------------------------------------------------------------------------------------------------------------
G|4--4-------------------------------------------------------------------------------------------------------------------------
D|------------------------------------------------------------------------------------------------------------------------------
A|------------------------------------------------------------------------------------------------------------------------------
E|------------------------------------------------------------------------------------------------------------------------------

E|--2--2-0----------------------------------------------------------------------------------------------------------------------
B|------------4-4/5~--5-5-5-5/7~-5-4~---4--4--4-4h5--0--------------------------------------------------------------------------
G|----------------------------------------------------------------------------4/5~----------------------------------------------
D|------------------------------------------------------------------------------------------------------------------------------
A|------------------------------------------------------------------------------------------------------------------------------
E|------------------------------------------------------------------------------------------------------------------------------
Outros vídeos desta música
    60 exibições
      • ½ Tom
      • A
      • Bb
      • B
      • C
      • Db
      • D
      • Eb
      • E
      • F
      • F#
      • G
      • Ab
    • Adicionar à lista

    Afinação da cifra

    Afinador online

      0 comentários

      Ver todos os comentários

      Entre para o Cifra Club PRO

      Tenha acesso a benefícios exclusivos no App e no Site

      • Chega de anúncios

      • Badges exclusivas

      • Mais recursos no app do Afinador

      • Atendimento Prioritário

      • Aumente seu limite de lista

      • Ajude a produzir mais conteúdo

      Cifra Club Pro

      Aproveite o Cifra Club com benefícios exclusivos e sem anúncios
      Cifra Club Pro
      Aproveite o Cifra Club com benefícios exclusivos e sem anúncios
      OK