Cifra Club

Opus 60 No 1 In C Major

Fernando Sor

Cifra: Principal (violão e guitarra)
Selo Cifra Club: esta cifra foi revisada para atender aos critérios oficiais da nossa Equipe de Qualidade.
tom: D
E|--------|--------|-----0-3|-1-0----|--------|---0----|
B|-1-0----|-1-0----|-1-3----|-----3--|-1-0----|-1---3-0|
G|-----0--|-----0--|--------|-------0|-----0--|--------|
D|--------|--------|--------|--------|--------|--------|
A|--------|--------|--------|--------|--------|--------|
E|--------|--------|--------|--------|--------|--------|

E|-------2|-3------|
B|---1----|---0----|
G|-2------|---0----| .             D PEAT
D|-----0--|---0----| .
A|--------|--------|
E|--------|-----3--|

E|-3---0-3|-1-----1|-0-----0|--------|--------|--------|
B|--------|-----3--|-----1--|-3-0----|-----1--|--------|
G|. ---0----|---0----|---0----|-----0--|---0----|---2----|
D|. --------|--------|--------|-------3|-2-----2|-3---0-3|
A|--------|--------|--------|--------|--------|--------|
E|--------|--------|--------|--------|--------|--------|

E|--------|---0----|
B|--------|---1----|
G|---0----|---0----|
D|-2------|--------|
A|-------2|-3----3-|
E|-----3--|--------|
Outros vídeos desta música
    7 exibições
      • ½ Tom
      • A
      • Bb
      • B
      • C
      • Db
      • D
      • Eb
      • E
      • F
      • F#
      • G
      • Ab
    • Adicionar à lista

    Afinação da cifra

    Afinador online

      0 comentários

      Ver todos os comentários

      Entre para o Cifra Club PRO

      Tenha acesso a benefícios exclusivos no App e no Site

      • Chega de anúncios

      • Mais recursos no app do Afinador

      • Atendimento Prioritário

      • Aumente seu limite de lista

      • Ajude a produzir mais conteúdo

      Cifra Club Pro

      Aproveite o Cifra Club com benefícios exclusivos e sem anúncios
      Cifra Club Pro
      Aproveite o Cifra Club com benefícios exclusivos e sem anúncios
      OK