Cifra Club

Why Try To Change Me Now

Fiona Apple

Cifra: Principal (violão e guitarra)
Selo Cifra Club: esta cifra foi revisada para atender aos critérios oficiais da nossa Equipe de Qualidade.
tom: Gm
G7sus2 :   3 x 3 2 3 x
Cm7 :      x 3 5 3 4 x
F13 :      1 x 1 2 3 x
F7 :       1 x 1 2 1 x
F7(#5) :   1 x 1 2 2 x
Bb :       x 1 3 3 3 x
G7(#5) :   3 x 3 4 4 x
D7sus4 :   x x 0 2 1 3
Fm7 :      1 x 1 1 1 x
Bb7 :      x 1 3 1 3 x
Ebma7 :    x 6 5 3 3 x
Gm :       3 5 5 3 3 x
C7 :       x 3 5 3 5 x
Dm :       x x 0 2 3 1
Gm7 :      3 x 3 3 3 x
C9 :       x 3 2 3 3 x
Cm9 :      x 3 1 3 3 x
Ebadd9 :   x 6 5 3 6 x
Ebmadd9 :  x 6 4 3 6 x
Gbm7 :     2 x 2 2 2 x
Eb6/9 :    x x 1 3 1 1
Bb9 :      x 1 0 1 1 1

[Intro]
    Eb             Ebm6           Dm7         G7
E|--------------------------------------------------------|
B|--------------------------------------------------------|
G|--------3-----3--5--3-----3--------2-----2--4--2-----2--|
D|--------5--5-----4-----4--------0-----3-----3-----3-----|
A|--6--------------6--------------------------------------|
E|--------------------------------------------3-----------|

    Cm7         F13         Bb5            Gm          Cm7
E|--------------------------------------------------------|
B|--------------3-----3--------------------------------4--|
G|--------3--5--2-----------3-----------------3--1--0--3--|
D|-----5--------1-----------3-----------------0--------5--|
A|--3-----------------------1--------------------------3--|
E|--------------1--------------------------3--------------|

[Alternative Intro]
    D#6         D#m6         Dm7         G7sus2
E|--3-----3-----2-----2-----1-----1-----------------|
B|--1-----1-----1-----1-----1-----1-----------------|
G|--0--0-----0--3--3-----3--2--2-----2--------0--2--|
D|--1-----------1-----------0--------------3--------|
A|--------------------------------------------------|
E|--------------------------------------3-----------|

    Cm7         F13         Bb           G7#5   
E|-----------------------------------------------|
B|--------------3-----3-----3-----------------4--|
G|--------3--5--2-----------3-----3-----------4--|
D|-----5--------1-----------3--3-----3-----3-----|
A|--3-----------------------1--------------------|
E|--------------1-----------------------3--------|

[Verse 1]
Cm7             F7
   I'm sentimental
     Dm7         G7sus2
So I walk in the rain
Cm7              F7
   I've got some habits
     D7sus4  G7(#5)
Even I can't explain
Ebadd9          Ebmadd9
      Go to the corner
Dm7            G7sus2
   I end up in Spain
Cm7           F13       Bb   G7(#5)
   Why try to change me now?

[Verse 2]
Cm7          F7
   I sit and daydream
         Dm7       G7sus2
I've got daydreams galore
Cm7          F7
   Cigarette ashes
D7sus4               G7(#5)
There they go on the floor
Ebadd9        Ebmadd9
      Go away weekends
         Dm7         G7sus2
Leave my keys in the door
Cm7           F13       Bb    Gbm7 
   Why try to change me now?


[Chorus 1]
Fm7           Bb7     Ebma7        Eb6/9
  Why can't I be more conventional?
       Fm            Bb9         Ebma7     Gbm7
People talk and they stare, so I try
Gm               C7 F7             Dm
  But that can't be 'cause I can't see
Gm7   C9                        Cm9           F7
   My strange little world just go passing me by
Cm7           F7              Dm7            G7sus2
   Let people wonder, let 'em laugh, let 'em frown
Cm7              F7                D7sus4 G7(#5)
   You know I'll love you till the moon's upside down
Ebadd9    Ebmadd9        Dm7         G7sus2
Don't you remember I was always your clown
Cm7           F13       Bb    Gbm7 
   Why try to change me now?


[Chorus 2]
Fm7           Bb7     Ebma7        Eb6/9
  Why can't I be more conventional?
       Fm            Bb9         Ebma7    Gbm7
People talk and they stare, so I try
Gm               C7 F7             Dm
  But that can't be 'cause I can't see
Gm7   C9                        Cm9           F7
   My strange little world just go passing me by

Cm7              F7              Dm7            G7sus2
   So Let people wonder, let 'em laugh, let 'em frown
Cm7              F7                D7sus4 G7(#5)
   You know I'll love you till the moon's upside down
Ebadd9    Ebmadd9        Dm7         G7sus2
Don't you remember I was always your clown
Cm7                     F7
   So why try to change me?
Dm7                   G7sus2
Why would you want to change me?
Cm7           F7        Bb    G7(#5)
   Why try to change me now?
Outros vídeos desta música
    619 exibições
      • ½ Tom
      • Am
      • Bbm
      • Bm
      • Cm
      • C#m
      • Dm
      • Ebm
      • Em
      • Fm
      • F#m
      • Gm
      • G#m
    • Adicionar à lista

    Afinação da cifra

    Afinador online

      0 comentários

      Ver todos os comentários

      Conseguiu tocar?

      0Tocaram0Ainda não

      Grave um vídeo tocando Why Try To Change Me Now e nos envie!

      Toque também

      1. Imagem do artista Alanis MorissetteIronic Alanis Morissette
      2. Imagem do artista Cat PowerSea Of Love Cat Power
      3. Imagem do artista Regina SpektorFidelity Regina Spektor
      4. Imagem do artista Joanna NewsomOnly Skin Joanna Newsom

      Entre para o Cifra Club PRO

      Tenha acesso a benefícios exclusivos no App e no Site

      • Chega de anúncios

      • Badges exclusivas

      • Mais recursos no app do Afinador

      • Atendimento Prioritário

      • Aumente seu limite de lista

      • Ajude a produzir mais conteúdo

      Cifra Club Pro

      Aproveite o Cifra Club com benefícios exclusivos e sem anúncios
      Cifra Club Pro
      Aproveite o Cifra Club com benefícios exclusivos e sem anúncios
      OK