Cifra Club

The Last Great American

Five For Fighting

Cifra: Principal (violão e guitarra)
Selo Cifra Club: esta cifra foi revisada para atender aos critérios oficiais da nossa Equipe de Qualidade.
tom: G
Intro
E|---x---x---x---x---x----|
B|---3---3---3---3---3----|
G|---0---0---0---0---0----|
D|---0---0---0---0---2----|
A|---2---0---2---x---3----|
E|---3---2---0---x---x----|

Verse 1
Mr. Merry cries in his coffin
For days he says he can remember
And through the town the pallbearers sing old songs
Of a beautiful purple mountain
E|---x---x---x---x---x----|
B|---3---3---3---3---3----|
G|---0---0---0---0---0----|
D|---0---0---0---0---2----|
A|---2---0---2---x---3----|
E|---3---2---0---x---x----|

From every walk of life we've come to see the Last Great American
E|---3---3---3----|
B|---3---3---3----|
G|---0---2---0----|
D|---2---0---2----|
A|---2---0---3----|
E|---0---2---0----|

Verse 2
May I now present you the speaker,
"Friends he was a man of men, a man of gold:
He had a how do you say, ethical like sense"
That's when the Prezident started to giggle
(same as first verse)

And the children gave the blessing
Though the service weren't half done
Each of them sued the other one
For the Last great American

E|---3---3---3----|
B|---3---3---3----|
G|---0---2---0----|
D|---2---0---2----|
A|---2---0---3----|
E|---0---2---0----|

Verse 3
Merry reaches up, we bow our heads
He pulls the lid on down and his stone is read
Here lies our Merry
The man with the heart so spent
That in this day and age
Is sick of living
(same as first verse)

And judges argue letters
Fabric comes undone
For every daughter every son
Of the Last great American

E|---3---3---3----|
B|---3---3---3----|
G|---0---2---0----|
D|---2---0---2----|
A|---2---0---3----|
E|---0---2---0----|

For every daughter every son
Of the Last great American

Outro
E|---x---x---x---x---x----|
B|---3---3---3---3---3----|
G|---0---0---0---0---0----|
D|---0---0---0---0---2----|
A|---2---0---2---x---3----|
E|---3---2---0---x---x----|
Outros vídeos desta música
      • ½ Tom
      • A
      • Bb
      • B
      • C
      • Db
      • D
      • Eb
      • E
      • F
      • F#
      • G
      • Ab
    • Adicionar à lista

    Afinação da cifra

    Afinador online

      0 comentários

      Ver todos os comentários

      Entre para o Cifra Club PRO

      Tenha acesso a benefícios exclusivos no App e no Site

      • Chega de anúncios

      • Badges exclusivas

      • Mais recursos no app do Afinador

      • Atendimento Prioritário

      • Aumente seu limite de lista

      • Ajude a produzir mais conteúdo

      Cifra Club Pro

      Aproveite o Cifra Club com benefícios exclusivos e sem anúncios
      Cifra Club Pro
      Aproveite o Cifra Club com benefícios exclusivos e sem anúncios
      OK